Acordes de Guitarra » S »Salamandra » Finnito (Tab)

Finnito
Salamandra

Letras, Notas, Punteos, Tablaturas y Acordes de Guitarra (Tabs & Chords)

  • Letra y Acordes
    A# - F#m - E - C#m
    
    Sentí que me faltaba algo
    
    entré, cuando te vi cambiaron todos mis sentidos
    
    mis latidos no eran míos
    
    y me escapé lejos de aquí
    
    a otra ciudad con otro nombre
    
    y siento que algo se va de mí
    
    y en cambio sólo me estoy condenando
    
    y con el aire que me queda
    
    voy a gritarte hasta que sepas que te estoy buscando
    
    
  • Tablatura
    E|----12--12--12----12---12--------12----12---12-------12------12----|
    B|-9-9---9--9---9-9---9-9--9-10-10----10---10----10-10---10-10----10-|
    G|-------------------------------------------------------------------|
    D|-------------------------------------------------------------------|
    A|-------------------------------------------------------------------|
    E|-------------------------------------------------------------------|
    
    E|-10s12--12-12-10-10-10-9-9-9-10-10-10-10-10---|
    B|-10s12--12-12-10-10-10-9-9-9-10-10-10-10-10---|
    G|----------------------------------------------|
    D|----------------------------------------------|
    A|----------------------------------------------|
    E|----------------------------------------------|
    
    E|---------------------------------------------|
    B|-12-14-12-14-12-14-12-14-12-14-12-14-12------|
    G|----------------------------------------9s11-|
    D|---------------------------------------------|
    A|---------------------------------------------|
    E|---------------------------------------------|
    
  • Tablatura
    E|---------12------12------12---12----------12---------12--------12-----12---|
    B|-----9--9---9-9-9---9-9----9-9--9-9/10--10---10-10-10---10-10----10-10--10-|
    G|-9h11----------------------------------------------------------------------|
    
    E|-10/12--12-12-10-10-10-9-9-9-10-10-10-10-10-10-|
    B|-10/12--12-12-10-10-10-9-9-9-10-10-10-10-10-10-|
    G|-----------------------------------------------|
    
    E|-12--12-12-12-12-12-12-12-12-12-12-12-12-|
    B|-12--14-12-14-12-14-12-14-12-14-12-14-12-|
    G|-----------------------------------------|
    
    E|---------12------12------12---12----------12---------12--------12-----12---|
    B|-----9--9---9-9-9---9-9----9-9--9-9/10--10---10-10-10---10-10----10-10--10-|
    G|-9h11----------------------------------------------------------------------|
    
    E|-10/12--12-12-10-10-10-9-9-9-10-10-10-10-10-10-|
    B|-10/12--12-12-10-10-10-9-9-9-10-10-10-10-10-10-|
    G|-----------------------------------------------|
    
    
  • +
    ¡Colabora con nosotros!
    Envíanos tu versión de esta canción

Letra de Finnito
Sentí que me faltaba algo
entré, cuando te vi cambiaron todos mis sentidos
mis latidos no eran míos
y me escapé lejos de aquí
a otra ciudad con otro nombre
y siento que algo se va de mí
y en cambio sólo me estoy condenando
y con el aire que me queda
voy a gritarte hasta que sepas que te estoy buscando
y que es a vos a quien yo canto.
Voy a buscarte hoy, por todas partes
todos desapareceremos, pero volveremos a estar otra vez
voy a encontrarte hoy, lo estoy sintiendo
que hace tiempo no lo hacemos
escapemos de una dosis esta vez.
Te entregué mi máquina vital de amar
y son tuyas mis palabras, y el humo que respiras
no me cansé de buscarte
lo sigo haciendo porque siento que no importa
la vida es corta y sólo quiero amarte.



© LaCuerda.net · Aviso Legal · Privacidad