Acordes de Guitarra » S »Saiko » Debilidad (Tab)

Debilidad
Saiko

Letras, Notas, Punteos, Tablaturas y Acordes de Guitarra (Tabs & Chords)

  • Letra y Acordes
    INTRO : F  Dm  G
            C  G/B  F
            F  Dm G  Am
    
      I:
    
        F  Dm  G
        Soy
                         C  G/B  F
        tan humano como los demás
                          F  Dm    G
        Y me cuesta decir la verdad
                    Am
        ver mi reflejo
    
    
      II:
    
        F  Dm  G
        No
    
  • Letra y Acordes
    INTRO : F  G
             C  Em  F
             F  G    Am
    
      I:
    
        F  G
        Soy
                         C  Em  F
        tan humano como los demás
    
        Y me cuesta decir la verdad
        G             Am
        ver mi reflejo
    
    
      II:
    
        F  G
        No
    
  • Tablatura
    INTRO : FA SOL DO FA x2
    
      -----------------------------------------------------
      -----------------------------------------------------
      -----------------------------------------------------
      ---10-9-10-9-10-9-10-9-7--5--7----5-7-5-7--12-10-9-10
      -------------------------------5-7-------------------
      -----------------------------------------------------
    
    
      -----------------------------------------------------
      -----------------------------------------------------
      -----------------------------------------------------
      -----------------------------------------------------
      ---10-9-10-9-10-9-10-9-9-7-5--7-7-7---5/7-----5------
      -----------------------------------5/7-----5/7-------
    
    
    
        FA   SOL
    
  • +
    ¡Colabora con nosotros!
    Envíanos tu versión de esta canción

Letra de Debilidad
I:
Soy
tan humano como los demás
Y me cuesta decir la verdad
ver mi reflejo
II:
No
tuve fuerzas para derrotar
Mi vacio Mi debilidad
no estaba lejos
Y ahora voy
comenzando a caminar
aprendiendo a respirar
estaba ciega, voy
cargando con mi cruz
ya puedo ver la luz
te veo en el final
de mi camino...
III: (Idem I y II)
Y hoy
que comprendo porque ya no estas
he sentido la necesidad
de estar despierta
Y yo doy
lo que quieran por recuperar
el amor que no supe cuidar
es mi castigo
Se que soy
agena a su verdad
peligro a lo normal
huelo sus miedos, voy
viviendo un dia más
luchando por ganar
a mi debilidad
ya estoy de regreso
Coda:
Soy
tan humano como los demás
Y me cuesta deicr la verdad
ver mi reflejo...........
Esta cancion va dedicada a Valentina Cosmica.....Graciasssss
sugerencias al mail japy69@hotmail.com
3 3
0 2
0 0
2 X
X X



© LaCuerda.net · Aviso Legal · Privacidad