Acordes de Guitarra » R »Roxana » Si tu no estas aquí (Tab)

Si tu no estas aquí
Roxana

Letras, Acordes y Tabs para Guitarra, Bajo y Ukulele

  • D#     Gm            G#
    no quiero estar sin ti
      A#                        D#
    si tu no estas aquí me sobra el aire
               Gm      G#
    no quiero estar así
      A#                        D#
    si tu no estas la gente se hace nadie
                     Gm      G#
    si tu no estas aquí no se
        A#                    D#
    que diablos hago amándote
                  Gm           G#
    si tu no estas aquí sabrás
        A#                                   D#
    que dios no va a entender por que te vas
    
    Rasgueado:
     D#        Gm           G#
    no quiero estar sin ti
    
  •        D     F#m       G               A5               A
    6|-----------2---------3--------------------------------0------------------------------|
    5|--------------------------------------0---------------0------------------------------|
    4|--0-------------------------------------2---------2---2------------------------------|
    3|----2---------2---------0---0--0---0------2-----2-----2------------------------------|
    2|------3---------2---------3------3----------2-0-------2------------------------------|
    1|--------3---------2-----------3-----------------------0------------------------------|
    
    VERSO:
    
    6|------------2---------3--------------------------------------------------------------|
    5|-----------------------------------------0-----------------------------------0h2-----|
    4|--0---------------------------------------------- -2-------0-------------------------|
    3|----2----------2---------0---0---0---0------2--- 2------2----2------2------ 2--------|
    2|------3----------2---------3-------3----------2------2-------- 3---3------ 3---------|
    1|--------3----------2-----------3----------------0-----------------3-----3-2----------|
    
    
    6|------------2---------3--------------------------------------------------------------|
    5|-----------------------------------------0-----------------------------------0h2-----|
    
  •                                           G#m               Bbm
    E|----------1--|------------3p4--|----------4-----|--------------1------|
    C|-------4-----|---3-------------|--------4---4---|----1------1p3-------|
    G|----3--------|------3----------|------5-------5-|-----3---------------|
    D|-1-----------|---0----0--------|----6-----------|--3----3-------------|
    A|-------------|-----------------|--6-------------|1--------------------|
    E|-------------|------------¬-----|4--------------|---------------------|
    
    
    
    RASGUEADO:
     D#m     Am7       G#m
    no quiero estar sin ti
       A#m                    D#m
    si tu no estas aqui me falta el sueño
      D#m        Am7
    no quiero andar asi
    
    latiendo un corazon de amor sin dueño
    
    
  • +
    ¡Colabora con nosotros!
    Envíanos tu versión de esta canción

Letra de Si tu no estas aquí
no quiero estar sin ti
si tu no estas aquí me sobra el aire
no quiero estar así
si tu no estas la gente se hace nadie
si tu no estas aquí no se
que diablos hago amándote
si tu no estas aquí sabrás
que dios no va a entender por que te vas
Rasgueado:
no quiero estar sin ti
si tu no estas aquí me falta el sueño
no quiero andar así
latiendo un corazón de amor sin dueño
si tu no estas aquí no se
que diablos hago amándote
si tu no estas aquí sabrás
que Dios no va a entender porque te vas
derramare mis sueños si algún día no te tengo
lo mas grande se hará lo mas pequeño
paseare en un cielo sin estrellas esta vez
tratando de entender quien hizo un infierno el paraíso
no te vayas nunca porque no
no puedo estar sin ti
si tu no estas aquí
me quema el aire
si tu no estas aquí [SILECIO] no se
que diablos hago amándote
si tu no estas aquí sabrás
que Dios no va a entender porque te vas
si tu no estas aquí no se
que diablos hago amándote
si tu no estas aquí sabrás...
que Dios no va a entender porque te vas
si tu no estas aquí...............
Hecho por: ALAN ADALID CASTAÑEDA GARCIA (elnx_fix@hotmail.com)
“TE AMO ADRIANA”

Video de Si tu no estas aquí
[]




[Si tu no estas aquí chords][Si tu no estas aquí cifra]
© LaCuerda.net · aviso legal · privacidad · es · en · pt · contacto