Acordes de Guitarra » R »Rostros Ocultos » El Final (Tab)

El Final
Rostros Ocultos

Letras, Acordes y Tabs para Guitarra, Bajo y Ukulele

  • Intro:C-D C-D
    G C G C
    
    
    
    G               C-D-G
    TE SALGO A BUSCAR
                      Em
    Y NO TE PUEDO ENCONTRAR
            C            D        G
    YA TUS AMIGAS ME HAN DICHO PORQUE
    
    G                  C-D-G
    LLEGANDO A LA FIESTA
                         Em
    TE VEO BESANDOTE CON OTRO
              C           D              G
    YO NO LO QUIERO HOY TE TENGO QUE OLVIDAR
    
    
    
  • Intro: G, C, G, C.
    
    
    
    G               C, G
    TE SALGO A BUSCAR
                      Em
    Y NO TE PUEDO ENCONTRAR
            C            D        G
    YA TUS AMIGAS ME HAN DICHO PORQUE
    
    G                  C, G
    LLEGANDO A LA FIESTA
                         Em
    TE VEO BESANDOTE CON OTRO
              C           D              G
    YO NO LO QUIERO HOY TE TENGO QUE OLVIDAR
    
    
    C                G
    
  •    C D              C D
    e|----------------------------------------------------|
    B|----------------------------------------------------|
    G|-5-77777777777777-5-77777777777777------------------|
    D|-5-77777777777777-5-77777777777777------------------|
    A|-3-55555555555555-3-55555555555555------------------|
    E|----------------------------------------------------|
                                                ¡Au!
    
        G                        G
    e|--7-xx-5-xx-3-xx-2-xx-3-5|-7----5----3----2----3-5--|
    B|--3-xx-3-xx-3-xx-3-xx-3-3|-3-xx-3-xx-3-xx-3-xx-3-3--|
    G|-------------------------|--------------------------|
    D|-------------------------|--------------------------|
    A|-------------------------|--------------------------|
    E|-------------------------|--------------------------|
    
        G                        G
    e|--7-xx-5-xx-3-xx-2-xx-3-5|-7----5----3----2----3-5--|
    B|--3-xx-3-xx-3-xx-3-xx-3-3|-3-xx-3-xx-3-xx-3-xx-3-3--|
    
  • Author/Artist: Rostros Ocultos
    Title: El final (Solo)
    --------------------|-------------------|-----------10----/15--|--------------
    -8--8p7p5-7-5-7-7h8-|---8p7p5-7-5-7-7h8-|---------8----8--/15--|--------------
    --------------------|-------------------|-----7-9--------------|--------------
    --------------------|-------------------|-7/9------------------|--------------
    --------------------|-------------------|----------------------|--------------
    --------------------|-------------------|----------------------|--------------
                                                                                  
    
    -12--12--10--------------------------------------------9/10-|-----------------
    -12--10---8--7-7/8--8\7--7/8--8\7--5/7--7\5--5/7--7\5--7/8--|-----------------
    ------------------------------------------------------------|-----------------
    ------------------------------------------------------------|-----------------
    ------------------------------------------------------------|-
  • Esta rola no puede faltar en una fiesta...
    (Que poca madre!)
    
    Intro (0:05)
    G---------
    D--------- (x2)
    A--3-5~---
    E---------
    
    Después del grito va esto:
    G------------------
    D------------------ (x3)
    A------------------
    E-3333333333333333-
    
    (0:20)                     Te salgo a buscar...
    G-----------------------------------------------
    D--555-444-222-000------------------------------
    A------------------33-22------------------3-5---
    E------------------------3333333333333333-------
    
         Y no te puedo encontrar...
    G----------------------------------------------
    D----------------------------------------------
    A------------------------------------3~---5~---
    E--3333333333333333-0000000000000000-----------
    
    G---------------------
    D---------------------
    A---------------------
    E--3333333333333333---
    
         Llegando a la fiesta...
    G-------------------------
    D-------------------------
    A-------------------3-5---
    E--3333333333333333-------
    
    Te veo besandote...
    G---------------------------------------
  • BUENO ESTA TRANSCRIPSION ES EXACTA NO HAY NINGUN ERROR YA QUE ME BASE 
    EN LAS PASADAS PERO NINGUNA TIENE BIEN LOS TRASTES NI LOS TIEMPOS Y NO 
    LA PUDE SACAR DE ESTAS;POR ESO FUE QUE ME DECIDI A TRANSCRIBIRLA YA QUE 
    TAMBIEN ES UNA LEYENDA DEL ROCK EN ESPAÑOL Y NO DEBE DE 
    FALTAR EN EL REPERTORIO DE
    UN BUEN BAJISTA.....
    AQUI LES VA:
    
    EL METRONOMO ES A 160
    
    SOLO SE UTILIZAN NEGRAS Y OCTAVOS
    
    EL INTRO ES CON GUITARRA RITMICA
    
    AUUUUUUUUUUUUUUUUUUU........
    
      + 1 + 2 + 3 + 4  + 1 + 2 + 3 + 4  + 1 + 2 + 3 + 4  + 1 + 2 + 3 + 4
    
    gI----------------I----------------I----------------I----------------I
    dI----------------I----------------I----------------I----------------I
    aI----------------I-----------3---5I----------------I-----------3---5I
    eI-3-3-3-3-3-3-3-3I-3-3-3-3--------I-3-3-3-3-3-3-3-3I-3-3-3-3--------I
    
      + 1 + 2 + 3 + 4  + 1 + 2 + 3 + 4  + 1 + 2 + 3 + 4  + 1 + 2 + 3 + 4
    
    gI----------------I----------------I----------------I----------------I
    dI----------------I-
  • Esto  es lo que   hace  vocalmente  el vocalista valga  la  redundancia
    El Final
    
     D    D    D  E B
    Te salgo  a buscar
    
    D    D    D          E   B    B A G A G
    Y no te puedo  encontrar
    
    F#   F#      G   G       A    A G   F# G
    Ya  tus  amigas me  han dicho porque
    
    C  D D D D  C  D  B
    Llegando  a  la Fiesta
    
    G  D D C  B  B A   G A G
    Te veo  besándote con otro
    
    G   G    G   G  G     A   B  B  A   A    G F# G
    Ya no  te  quiero   hoy  te tengo que olvidar
    
    G     C   C     B    B   A
    Decías  que me  querías
    
     G    G    A     G      G     B     D  B
    Que  no era  fácil  poderme  olvidar
    
    B      B   C  C   C   B  B   D D  D   D   D
    Regrésame el  retrato  se  acabo oooo
    
     B        C        C    B     G   A   G   B   D   B
    Lo  siento    es  tarde  comprende  es el final
    
    B  D  E A B
    Es el final
  • +
    ¡Colabora con nosotros!
    Envíanos tu versión de esta canción
  • Tutorial
    El Final - Rostros Ocultos (Cover)
    2:35
  • Tutorial
    HD
    Como tocar EL FINAL en guitarra - Rostros Ocultos [Tutorial Somos Posers]
    14:34

Letra de El Final
TE SALGO A BUSCAR
Y NO TE PUEDO ENCONTRAR
YA TUS AMIGAS ME HAN DICHO PORQUE
LLEGANDO A LA FIESTA
TE VEO BESANDOTE CON OTRO
YO NO LO QUIERO HOY TE TENGO QUE OLVIDAR
DECIAS QUE ME QUERIAS
QUE NO ERA FACIL PODERME OLVIDAR
REGRESAME EL RETRATO SE ACABO UO OO OO
LO SIENTO ES TARDE
COMPRENDE ESTE ES EL FINAL
REGRESAME EL RETRATO SE ACABO.
LLEGANDO A LA FIESTA
TE VEO BESANDOTE CON OTRO
YO NO LO QUIERO HOY TE TENGO QUE OLVIDAR
DECIAS QUE ME QUERIAS
QUE NO ERA FACIL PODERME OLVIDAR
REGRESAME EL RETRATO SE ACABO UO OO OO
ES EL FINAL, O UO UO, DE NUESTRO AMOR.

Video de El Final
[]




[El Final chords][El Final cifra]
© LaCuerda.net · aviso legal · privacidad · es · en · pt · contacto
DINAMICO