Acordes de Guitarra » R »Rosana » Si tu no estas aquí (Tab)

Si tu no estas aquí
Rosana

Letras, Acordes y Tabs para Guitarra, Bajo y Ukulele

  • intro: G Bm C D G
    
    G         Bm        C 
    no quiero estar sin ti
    D                                 G 
    si tu no estas aqui me sobra el aire
    G          Bm      C
    no quiero estar asi
    D                                G 
    si tu no estas la gente se hace nadie
    
    Bm                  C
    si tu no estas aqui no se
    D                        G
    que diablos hago amandote
    Bm                  C
    si tu no estas aqui sabras
    D                         G
    que Dios no va a entender porque te vas
    
    
  • intro: RE  SOL LA RE
    
    RE       FA#m     SOL 
    no quiero estar sin ti
    LA                                RE 
    si tu no estas aqui me sobra el aire
    RE        FA#m     SOL
    no quiero estar asi
    LA                               RE 
    si tu no estas la gente se hace nadie
    
    FA#m                SOL
    si tu no estas aqui no se
    LA                       RE
    que diablos hago amandote
    FA#m                SOL
    si tu no estas aqui sabras
    LA                        RE
    que Dios no va a entender porque te vas
    
    
  •   D9      F#m       G                 A
    e|-------0-------2-|-3---------3-----|---------0-------|-----------------|
    B|-3---3---2-------|-------3-----3---|----0---2--------|-----------------|
    G|---2-------2-----|-----4---4-----4-|-----2-2---------|-----------------|
    D|-0-----------4---|---5-------------|---2--2----------|-----------------|
    A|-----------------|-----------------|-0---------------|-----------------|
    E|---------2-------|-3---------------|-----------------|-----------------|
    
      D9      F#m       G                 A                 D
    e|-------0-------2-|-3---------3-----|---------0-------|----0h2---3p2----|
    B|-3---3---2-------|-------3-----3---|-------2-----0---|---3---------3---|
    G|---2-------2-----|-----4---4-----4-|-----2-----2---2-|--2------2-------|
    D|-0-----------4---|---5-------------|---2-------------|-0-----0---------|
    A|-----------------|-----------------|-0---------------|--------------02-|
    E|---------2-------|-3---------------|-----------------|-----------------|
    No quiero estar sin ti si tú no estás aquí me sobra el aire
    
      D9      F#m       G                 A                 D
    e|-------0-------2-|-3---------3-----|-------0-------0-|----0h2---3p2----|
    B|-3---3---2-------|-------3-----3---|----0h2--2---2---|---3---------3---|
    
  • +
    ¡Colabora con nosotros!
    Envíanos tu versión de esta canción

Letra de Si tu no estas aquí
no quiero estar sin ti
si tu no estas aqui me sobra el aire
no quiero estar asi
si tu no estas la gente se hace nadie
si tu no estas aqui no se
que diablos hago amandote
si tu no estas aqui sabras
que Dios no va a entender porque te vas
no quiero estar sin ti
si tu no estas aqui me falta el sueño
no quiero andar asi
latiendo un corazon de amor sin dueño
si tu no estas aqui no se
que diablos hago amandote
si tu no estas aqui sabras
que Dios no va a entender porque te vas
derramare mis sueños si algun dia no te tengo
lo mas grande se hara lo mas pequeño
paseare en un cielo sin estrellas esta vez
tratando de entender quien hizo un infierno el paraiso
no te vas nunca porque no
no puedo estar sin ti
si tu no estas aqui
me quema el aire
si tu no estas aqui no se
que diablos hago amandote
si tu no estas aqui sabras
que Dios no va a entender porque te vas
si tu no estas aqui no se
que diablos hago amandote
si tu no estas aqui sabras
que Dios no va a entender porque te vas




[Si tu no estas aquí chords][Si tu no estas aquí cifra]
© LaCuerda.net · aviso legal · privacidad · es · en · pt · contacto