Acordes de Guitarra » R »los Ronaldos » No puedo vivir sin tí (Tab)

No puedo vivir sin tí
los Ronaldos

  • Letra y Acordes
    DO
    Llevas años enredada en mis manos, en mi pelo,
    MI7
    en mi cabeza,
    FA
    & no puedo más,
    MI7       SOL
    no puedo más.
    
    DO
    Debería estar cansado de tus manos, de tu pelo,
    MI7
    de tus rarezas,
    FA
    pero quiero más,
    MI7        SOL
    yo quiero más.
    
    DO
    No puedo vivir sin ti,
    
  • Letra y Acordes
    DO-MI-FA-MI
    DO-MI-FA-MI
    
    
           DO
    Llevas años enredada en mis manos,
               MI
    en mi pelo, en mi cabeza,
         FA             MI       SOL
    y no puedo más, no puedo más.
        DO
    Debería estar cansado de tus manos,
              MI
    de tu pelo, de tus rarezas,
           FA            MI    SOL
    pero quiero más, yo quiero más.
    
                DO
    No puedo vivir sin ti,
             MI
    
  • Tablatura
       C                 E7                F                 E7 -> G7
    |--8--8------8--8-|--4--4------4--4-|--5--5----- 5--5--|--4->>-7--|
    |--8--8------8--8-|--3--3------3--3-|--6--6------6--6--|--5->>-8--|
    |--9--9--8H9-9--9-|--4--4--3H4-4--4-|--5--5--4H5-5--5--|--4->>-7--|
    |-----------------|-----------------|------------------|----------|
    |-----------------|-----------------|------------------|----------|
    |-----------------|-----------------|------------------|----------|
    
       C                 E7               F                    E7 -> G7
    |--8--8------8--8-|--4--4------4--4-|---5--5H6P5---5--5--|--4->>-7--|
    |--8--8------8--8-|--3--3------3--3-|---6-------6--6--6--|--5->>-8--|
    |--9--9--8H9-9--9-|--4--4--3H4-4--4-|-5-5--------5-5--5--|--4->>-7--|
    |-----------------|-----------------|--------------------|----------|
    |-----------------|-----------------|--------------------|----------|
    |-----------------|-----------------|--------------------|----------|
    
    H: Hammer on
    P: Pull
    >: Slide
    
    
  • +
    ¡Colabora con nosotros!
    Envíanos tu versión de esta canción

Letra de No puedo vivir sin tí
Llevas años enredada en mis manos, en mi pelo,
en mi cabeza,
& no puedo más,
no puedo más.
Debería estar cansado de tus manos, de tu pelo,
de tus rarezas,
pero quiero más,
yo quiero más.
No puedo vivir sin ti,
No hay manera,
No puedo estar sin ti,
No hay manera.
Me dijiste que te irías, pero llevas en mi casa
toda la vida
sé que no te irás.
Tú no te irás.
Has colgado tu bandera, traspasado la frontera,
Eres la reina.
Siempre reinarás,
Siempre Reinarás.
No puedo vivir sin ti,
No hay manera,
No puedo estar sin ti,
No hay manera.
Y ahora estoy aquí esperando a que vengan a buscarme.
Tú no te muevas
No me encontrarán.
No me encontrarán.
Yo me quedo para siempre con mi reino,
Su bandera,
Ya no hay fronteras.
Me dejaré llevar a ningún lugar.
No puedo vivir sin ti,
No hay manera.
No puedo estar sin ti,
No hay manera.
(Esta última estrofa se repite 3 veces)



© LaCuerda.net · aviso legal · privacidad · contacto