Acordes de Guitarra » R »Romeo Santos » Debate de 4 (Tab)

Debate de 4
Romeo Santos

Letras, Acordes y Tabs para Guitarra, Bajo y Ukulele

  • Intro: G F G Am G F G
    
    
    Romeo Santos:
    Am               G          F                   G
    Eh venido desde lejos a un debate a pelearme por ti no
    Solo quiero ser tu dueño hay mami tu romeo es un pobre
    infeliz come tell me please , am i your daddy , am i your king?
    Muñeca mía decide ya cual de nosotros con quien te vas?
    
    Anthony santos:
    Cántale Luis como tú sabe
    
    Luis vargas:
    Am                G            F                G
    Por atento y muy sincero esta guerra yo la voy a ganar
    Me llaman el rey supremo negra bella te quiero recordar que tu
    Me tienes loco de amor donde hubo fuego queda la tentación ven dime ahora
    Decide ya cual de nosotros con quien te vas
    
    
  • E-----------------------------------------------------------------|
    B------------5-5-6-5-6-5------------------------------------------|
    G---------5----------------7-7-9-7-9-7-5-5-7-5-7-5----------------|
    D------7-------------------------------------------------9--------|
    A---7-------------------------------------------------------------|
    E-----------------------------------------------------------------|
    
    E------------------------------------------------------|
    B---------------5--6P5---------------------------------|
    G---------5-7-------------7---7H9P7------7H9-----------|
    D---7H9------------------------------------------------|
    A------------------------------------------------------|
    E------------------------------------------------------|
    
    E------------------------------------------------------|
    B---8---6P5------6P5-----------------------------------|
    G--------------7---------7P5---7H9P7-----7H9-----------|
    D------------------------------------------------------|
    A------------------------------------------------------|
    E------------------------------------------------------|
    
  • +
    ¡Colabora con nosotros!
    Envíanos tu versión de esta canción

Letra de Debate de 4
Romeo Santos:
Eh venido desde lejos a un debate a pelearme por ti no
infeliz come tell me please , am i your daddy , am i your king?
Muñeca mía decide ya cual de nosotros con quien te vas?
Anthony santos:
Cántale Luis como tú sabe
Luis vargas:
Por atento y muy sincero esta guerra yo la voy a ganar
Me llaman el rey supremo negra bella te quiero recordar que tu
Me tienes loco de amor donde hubo fuego queda la tentación ven dime ahora
Decide ya cual de nosotros con quien te vas
Traje rosas mi guitarra y una botella
pa emborracharme y cantarte a ti Morena
un debate pa que elijas tu marido
somos cuatro pero vente conmigo
Sigen los mismos acordes
Romeo santos:
Bueno dígale raulin
Raulin rodrigues:
Morenita consentida el cacique no a venido a perder
y como soy un macho De hombre mis rivales no me pueden vencer
ya yo no quiero la soledad de este cuarteto Soy quien te quiere mas
dime nereida decide ya cual de nosotros con quien te vas?
Traje rosas mi guitarra y una botella
pa emborracharme y cantarte a ti
Morena un debate pa que elijas tu marido
somos cuatro pero vente conmigo
Anthony santos:
una bachata de titanes
raulin rodrigues :
sentimiento mami
romeo santos:
you need this in your life
Luis vargas:
ahí que envidia
Romeo santos:
how can a King fear soldiers?
Anthony santos:
tu mayimbe mami, tu bachatu tu bachatuu pa tii Anthony santos
Pero que usted piensa hijo Mio?
Romeo santos:
que hoy se bebe!!
Suéltale tu verbo mayimbe
Anthony santos:
no le tengo miedo a nadie
y en esta batalla yo saldré ganador
mi Corazón es el culpable
que por ti tenga una pena de amor
tu mayimbe esta cantando
Deja el jueguito y no me hagas un plantón
y no hay dificil eres mujer o quizas sera por tu timidez
ay dime mami decide ya cual de nosotros deside ya
Saludos & bendiciones : Romeo Chileno




[Debate de 4 chords][Debate de 4 cifra]
© LaCuerda.net · aviso legal · privacidad · es · en · pt · contacto
DINAMICO