Acordes de Guitarra » R »Rojo » Solo Tú (Tab)

Solo Tú
Rojo

Letras, Acordes y Tabs para Guitarra, Bajo y Ukulele

  • Damj7       Bm               F#m
    Es mi anhelo mi deseo adorarte mas y mas
    Damj7       Bm               F#m
    No detengo no suspendo el acercarme a tu verdad
          G                     A               Bm      F#m
    Las mañanas me dicen que quieres estar a mi lado mi Dios
         G                   A
    Seguiré tras de ti seguiré tras tus pasos
    
    D                            F#
    Tu solo tu solo tu me elevas a soñar
    Bm                            G
    Tu solo tu solo tu me enseñas a volar
    D                            F#
    Tu solo tu solo tu te adueñaste de mi amor
    Bm                              G
    Tu solo tu solo tu cautivaste el corazón
    D -F# Bm           Em -G A
    Solo tú solo, solo, solo tú
    
    
  • Intro: Dmaj7-Bm-F#m
    
    ESTROFA 1:
    Dmaj7 Bm                  F#m
    Es    mi anhelo y deseo adorarte mas y mas
    Dmaj7      Bm               F#m
    no detengo no suspendo al acercarme a tu verdad
         G                    A               Bm      F#madd4
    la mañanas me dicen que quieres estar ami lado mi Dios
          G                  A
    seguire tras de ti seguire tras tus pasos
    
    CORO:
    D
    Tu solo tu, solo tu
              F#
    Me elevas a soñar
    Bm
    Tu solo tu, solo tu
               G
    
  • INTRO:      // C Am Em //
     C   Am              Em
    Es mi anhelo mi deseo adorarte mas y mas
     C      Am             Em
    No detengo no suspendo el acercarme a tu verdad
     F         G             Am             Em
    Las mañanas me dicen que quieres estar a mi lado mi Dios
     F                      G
    Seguiré tras de ti seguiré tras tus pasos
     CORO:
     C                           Em E7
    Tu solo tu solo tu me elevas a soñar
     Am                   F
    Tu solo tu solo tu me enseñas a volar
    C                             Em E7
    Tu solo tu solo tu te adueñaste de mi amor
      Am                   F
    Tu solo tu solo tu cautivaste el corazón
         C -E Am             Fm Am G
     // Solo tú solo, solo, solo tú //
    
  • Dmaj7 - Bm - F#m
    
    Dmaj7         Bm          F#m
    Es mi anhelo, mi deseo adorarte más y más
    Dmaj7       Bm             F#m
    No detengo, no suspendo al acercarme a tu verdad
    G                         A                 Bm
    Las mañanas me dicen que quieres estar a mi lado
       F#madd4     G                  A
    Mi Dios. Seguiré tras de Ti, seguiré tras tus pasos.
    
    CORO
      D                           F#
    Tú solo Tú solo Tú, me elevas a soñar
     Bm                            G
    Tú solo Tú solo Tú, me enseñas a volar
     D                               F#
    Tú solo Tú solo Tú, te adueñaste de mi amor
    Bm                             G
    Tú solo Tú solo Tú, cautivaste el corazón
    
  • EsTe es el solo de solo tu.. chequenlo muy bien..he!!
    
    E-------------------------------------7v------------
    B--14s15--12--------------------------7v----7-------
    G--------------14--12-----------------7v----7---------
    D-----------------------14--12----------------------
    A--------------------------------14-----------------
    E-------------------------------------------------
    
    
    
    E--------------------------------------------------
    B--------------------------------------------------
    G-------5--------7--7-------9--------11r-----------
    D--4s5--5---5s7--7--7--7s9--9--9s11--11r-----------
    A--------------------------------------------------
    E--------------------------------------------------
    
                                TODO ESTO DE REPITE DOS VECES
                                   V    V    V    V    V
    E------------------------------12---12---12---10---10----------------
    B-15b--12------12--------10----12---12---12---12---12---10---------
    G----------14-------12---------12---12---12---12---12--------8
  • Este es el solo, de esta rola tan buena!!!
    SOLO
    
    E--7s10-7-----------------------------2-----6------9-------12-
    B---------10-7---------7--------------------------------------
    G--------------7-------7--9-9/11---2/3---3/6----6/9----9/11---
    D----------------9-7---7--------------------------------------
    A-------------------------------------------------------------
    E-------------------------------------------------------------
    
    E--------------------------------------
    B-14b15b14b15b14p12--------------------
    G-------------------14-14/16/11/14-----
    D--------------------------------------
    A--------------------------------------
    E--------------------------------------
    
    E-10----10-10-10---10----10-10-10--------------------------
    B-10h12-12-10-10---10h12-12-10-10----8-8-7-8p7-------------
    G----------------------------------------------9-7---------
    D----------------------------------------------------------
    A----------------------------------------------------------
    E------------------------------
  • +
    ¡Colabora con nosotros!
    Envíanos tu versión de esta canción

Letra de Solo Tú
Es mi anhelo mi deseo adorarte mas y mas
No detengo no suspendo el acercarme a tu verdad
Las mañanas me dicen que quieres estar a mi lado mi Dios
Seguiré tras de ti seguiré tras tus pasos
Tu solo tu solo tu me elevas a soñar
Tu solo tu solo tu me enseñas a volar
Tu solo tu solo tu te adueñaste de mi amor
Tu solo tu solo tu cautivaste el corazón
Te has llevado todo el miedo todo lo que me atrapo
Mi camino mi destino lo encontré en tu corazón
Cada noche me dice que estas escuchando mi alma mi Dios
Buscaré mas de ti buscaré tu fragancia.
Tu solo tu solo tu me elevas a soñar
Tu solo tu solo tu me enseñas a volar
Tu solo tu solo tu te adueñaste de mi amor
Tu solo tu solo tu cautivaste el corazón
Brillan tus rayos de amor
y escucho esta gracia que me hace amarte mas




[Solo Tú chords][Solo Tú cifra]
© LaCuerda.net · aviso legal · privacidad · es · en · pt · contacto