Acordes de Guitarra » R »Rojo » Intimdad (Tab)

Intimdad
Rojo

  • Letra y Acordes
      C                             FAdd2
    QUIERO ESTAR EN LA INTIMIDAD CONTIGO
    Dm         Dm/C
    ENFOCAR MI VIDA UNA VEZ MAS
           G         C
    A TU MAJESTAD, DEJANDO ATRAS
                  FAdd2
    EL MIEDO Y EL DOLOR
      Dm
    CONFIANDO EN TU MIRADA
    Dm/C                      G
    DEJANDO ARDER MI LLAMA POR TI
    
             Am7   G  FAdd2    Am7 G FAdd2
    //COMO TE DESEO, COMO TE DESEO//
    
    F                      Bbadd2
    MI DESEO ES AGRADAR TU CORAZON
       Gmadd4            F          C
    Y TODO MI AFECTO, MI VIDA Y MI RAZON
    
  • Tablatura
    e -----------------------------------------------------
    B ----6--8-8 sl 10-10-10-------------------------------
    G --5--------------------------------------------------
    
    ESO LO HACE DOS VECES, HAY QUE ESCUCHAR BIEN POR QUE APENAS SE DISTINGUE
    
    ENSEGUIDA SIGUE EL ARPEGIO QUE VA ALGO ASI:
    
    
            C (dos veces)            FAdd2(dos veces)
    e ------1-3-0----0---------------------3------3--
    B ----2--------1--------------------6----6-------
    G -------------------------------5---------5-----
    D --4-------------------------3------------------
    A -----------------------------------------------
    E -----------------------------------------------
    
           Dm (una vez)              Dm/C  (Una Vez)
    e ----------1----------------------1-----------------
    B -------3-----3-----------------3---3---------------
    
  • +
    ¡Colabora con nosotros!
    Envíanos tu versión de esta canción

Letra de Intimdad
QUIERO ESTAR EN LA INTIMIDAD CONTIGO
ENFOCAR MI VIDA UNA VEZ MAS
A TU MAJESTAD, DEJANDO ATRAS
EL MIEDO Y EL DOLOR
CONFIANDO EN TU MIRADA
DEJANDO ARDER MI LLAMA POR TI
//COMO TE DESEO, COMO TE DESEO//
MI DESEO ES AGRADAR TU CORAZON
Y TODO MI AFECTO, MI VIDA Y MI RAZON
SE ELEVAN AL CIELO AL QUE HABITA EN MI INTERIOR
ERES EL AIRE QUE RESPIRO
ME ALIENTA Y ME LEVANTA SE MI ERROR
//COMO TE DESEO, COMO TE DESEO//
//TE DESEO, TE DESEO//
QUIERO ESTAR EN LA INTIMIDAD CONTIGO
Bueno, esta es mi primera transcripcion, y espero que sea de gran
bendicion ya que esta rola nos habla del deseo y ganas por
conocer a JESUCRISTO. Saludos.
Alejandro Lalcoma



© LaCuerda.net · aviso legal · privacidad · contacto
DINAMICO