Tablatura para Bajo de los Rodriguez: Sin Documentos
Conexión · Inscripción
Letras y Acordes
Pantalla Completa
Imprimir
Versión Texto
Añadir Favorito
Otras Versiones

Mostrar Diagramas
Desfile Automático
Formato del Texto


Sin Documentos(BAJ)

los Rodriguez

calidad:
rodr0376
AUTOR: Andrés Calamaro
ALBUM: Palabras Mas Palabras Menos (1993)
Enviado por Marcelo, basado en mariano
PRINCIPAL
|----------------|----------------|----------------|----------------|
|------------5---|----------------|------7---------|------7---------|
|------5---------|------------3-4-|5---------------|5----------5-0--|
|3---------------|3-----6-6-------|------------5---|----------------|

|----------------|----------------|----------------|----------------|
|------8---------|------8---------|------7---------|-----7----------|
|6---------------|6----------6-0--|5---------------|5------5--------|
|------------6---|----------------|------------5---|---------0-6-5--|

|----------------|----------------|-----------7----|----------------|
|------------5---|----------------|------7------7--|------7---------|
|------5---------|------------3-4-|5---------------|5----------5-0--|
|3---------------|3-----6-6-------|----------------|----------------|

|----------------|----------------|----------------|----------------|
|------8---------|------8---------|------7---------|-----7----------|
|6---------------|6----------6-0--|5---------------|5------5--------|
|------------6---|----------------|------------5---|---------0-6-5--|

VERSO
|----------------|----------------|----------------|----------------|
|------------5---|----------------|------7---------|------7---------|
|------5---------|------------3-4-|5---------------|5----------5-0--|
|3---------------|3-----6-6-------|------------5---|----------------|

|----------------|----------------|----------------|----------------|
|------8---------|------8---------|------7---------|-----7----------|
|6---------------|6----------6-0--|5---------------|5------5--------|
|------------6---|----------------|------------5---|---------0-6-5--|

|----------------|----------------|-----------7----|----------------|
|------------5---|----------------|------7------7--|------7---------|
|------5---------|------------3-4-|5---------------|-5---------5-0--|
|3---------------|3-----6-6-------|----------------|----------------|

|----------------|----------------|----------------|----------------|
|------8---------|------8---------|------7---------|------7---------|
|6---------------|6----------6-0--|5-----------0---|5-------5-0-5---|
|------------6---|----------------|----------------|----------------|

PRE-CORO
|----------------|----------------|----------------|----------------|
|----------------|----------------|----------------|----------------|
|6-----------6---|(6)---------6---|5-----------5---|(5)---5-3---5---|
|------6---------|------6--6------|------5---------|----------------|

|----------------|----------------|----------------|----------------|
|----------------|----------------|----------------|-----7----------|
|6-----------6---|(6)---------6---|5-----------5---|(5)----5--------|
|------6---------|------6--6------|------5---------|---------0-6-5--|

VERSO
PRE-CORO

CORO
|----------------|----------------|----------------|----------------|
|----------------|----------------|------7---------|------7---------|
|----------------|----------------|5---------------|5-----------5-0-|
|3-------3-------|3/--------------|-----------5----|----------------|

|----------------|----------------|----------------|----------------|
|------8---------|------8---------|------7---------|-----7----------|
|6---------------|6----------6-0--|5---------------|5------5--------|
|------------6---|----------------|------------5---|---------0-6-5--|

|----------------|----------------|-----------7----|----------------|
|----------------|----------------|------7------7--|------7---------|
|----------------|----------------|5---------------|5-----------5-0-|
|3-------3-------|3/--------------|----------------|----------------|

|----------------|----------------|----------------|----------------|
|------8---------|------8---------|------7---------|-----7----------|
|6---------------|6----------6-0--|5---------------|5------5--------|
|------------6---|----------------|------------5---|---------0-6-5--|

PRINCIPAL
VERSO
PRE-CORO
CORO
SOLO = PRINCIPAL + VERSO

PRE-CORO VARIACION
|----------------|----------------|----------------|----------------|
|----------------|----------------|----------------|----------------|
|6-----------6---|(6)---------6---|5-----------5---|(5)---5-3---5---|
|------6---------|------6--6------|------5---------|----------------|

|----------------|----------------|----------------|----------------|
|----------------|----------------|----------------|----------------|
|6-----------6---|(6)---------6---|5-----------5---|(5)---5-3---5---|
|------6---------|------6--6------|------5---------|----------------|

|----------------|----------------|----------------|----------------|
|----------------|----------------|----------------|----------------|
|6-----------6---|(6)---------6---|5-----------5---|(5)---5-3---5---|
|------6---------|------6--6------|------5---------|----------------|

|----------------|----------------|----------------|----------------|
|----------------|----------------|----------------|----------------|
|6-----------6---|(6)---------6---|5-----------5---|5---------------|
|------6---------|------6--6------|------5---------|----------------|

PRINCIPAL X 2

FINAL
|----------------|----------------|
|----------------|----------------|
|----------------|----------------|
|3-------3-------|3/--------------|
Este fichero es trabajo propio de su transcriptor y representa su interpretación personal de la canción. El material contenido en esta página es
para exclusivo uso privado, por lo que se prohibe su reproducción o retransmisión, así como su uso para fines comerciales.

© LaCuerda.net · Aviso Legal · Privacidad