Tablatura para Bajo de los Rodriguez: Sin Documentos
Conexión · Inscripción
Letras y Acordes
Pantalla Completa
Imprimir
Versión Texto
Añadir Favorito
Otras Versiones

Mostrar Diagramas
Desfile Automático
Formato del Texto


Sin Documentos(BAJ)

los Rodriguez

calidad:
rodr0374
AUTOR: Andrés Calamaro
ALBUM: Palabras Mas Palabras Menos (1993)
Enviado por Rosabeth
Riff 1 (x4)
|----------------------------------------------------|
|-----55--------------77-----------------------------|
|---5------3-4-5---55----5-6---66---6---5---55---5---|
|-3------3-------5-----------6----6---6---5----5---6-|

Riff 2 Coro
|---------------------------|
|---------------------------|
|-6---66---6---5---55---5---|
|---6----6---6---5----5---5-|

|---------------------------|
|---------------------------|
|-6---66---6---5---55---5---|
|---6----6---6---5----5---6-|

Riff 1 (x2)

Riff 3
|---------------------------|
|---------------------------|
|-6---66---6---5---55---5---|
|---6----6---6---5----5---5-|

|---------------------------|
|---------------------------|
|-6---66---6---5---55---5---|
|---6----6---6---5----5---5-|

Porque sí
|---------------|
|---------------|
|---10-10-10/---|
|---------------|

|---------------------------------------|
|--------77-----------------------------|
|-5---55----5-6---66---6---5---55---5---|
|---5-----------6----6---6---5----5---5-|

Porque sí
|---------------|
|---------------|
|---10-10-10/---|
|---------------|

|---------------------------------------|
|--------77-----------------------------|
|-5---55----5-6---66---6---5---55---5---|
|---5-----------6----6---6---5----5---6-|

Riff 1 (x4)
Riff 3
Riff 1 (x4)
Riff 2 (x1)
Riff 2 con slide (x1)
|---------------------------|
|---------------------------|
|-6---66---6---5---55---5---|
|---6----6---6---5----5---5-|

|-------------------------|
|-------------------------|
|-6---66---6---5---55/17--|
|---6----6---6---5--------|

Riff 1 modificado
|-----------------------------------------------------|
|------55--------------77-----------------------------|
|-10-5------3-4-5---55----5-6---66---6---5---55---5---|
|---------3-------5-----------6----6---6---5----5---6-|

Riff 1 (x4)

Salida
|---------|
|---------|
|---------|
|--3-3-3--|
Este fichero es trabajo propio de su transcriptor y representa su interpretación personal de la canción. El material contenido en esta página es
para exclusivo uso privado, por lo que se prohibe su reproducción o retransmisión, así como su uso para fines comerciales.

© LaCuerda.net · Aviso Legal · Privacidad