Acordes de Guitarra » R »Robbie Williams » Ser Mejor (Tab)

Ser Mejor
Robbie Williams

Letras, Acordes y Tabs para Guitarra, Bajo y Ukulele

  •        F#         F#4
    E----------------------------------------------------
    A----------------------------------------------------
    D-4-------------4-------------4----------------------
    G--3---3---3-----4---4---4-----3---3---3---4---------
    B-------2---2---------2---2---------2---2------------
    e----2---2---2-----2---2---2-----2---2---2-----------
    
    
        F#             D#m
    Llename la vida, dame tranquilidad
              G#m                      C#
    Calma el temporal, que hay en mi piel.
    
               F#        D#m
    Dame primaveras para disfrutar
           G#m                        C#
    Días que se van y no han de volver.
    
          G#m          C#
    
  •            A              F#m
    Llévame la vida, dame tranquilidad,
             D                      E
    calma el temporal que hay en mi piel,
              A          F#m
    dame primaveras para disfrutar,
         D                         E
    días que se van, no han de volver,
          F#m        E          A
    puede ser que la voz ,de tu paz,
         F#m       D           E
    y el amor, me ayuden a cambiar ,
                      A
    y me hagan ser mejor.
    
                   A            F#m
    Perdona mis manías, no doy para más,
            D                  E                 A
    no se aparentar, soy como soy, ángel de la guarda,
           F#m         D                 E
    
  • INTRO:SOL
    
    (1)
               SOL
    Lléname la vida
               MIm
    Dame tranquilidad
              DO
    Calma el temporal
         RE
    Que hay en mi piel
    
    'mismos acordes de (1)'
    
    Dame primaveras
    Para disfrutar
    Días que se van
    No han de volver
    
    (2)
    
  • G5      3  2  0  0  3  3
    C2      X  3  2  0  3  3
    Em?     x  2  2  0  3  3
    Am?     x  0  2  0  1  3
    Am      x  0  2  2  1  0
    D       x  x  0  2  3  2
    Dsus4   x  x  0  2  3  3
    D\F#    2  x  x  x  3  0
    Gm      3  5  5  3  3  3
    Bb      x  x  3  3  3  1
    
    intro
       G5           C2
    e------3-----3-----3---3-----3-----3----3-----3--3---3
    b------3---3----3------3---3-----3-------3---3----3--3
    g----0---0---0------0----0-----0------0----0----0----0
    d-----------------------------------------------------
    a------------------3---------------------------------3
    E--3---------------------------------3----------------
    
    
  • el bajo entra en el min 01:03
    
    G|-----------------------------------------------------------------------------|
    D|-----------------------------------------------------------------------------|
    A|--9-9--9-9--6-6--6-6--2-2--2-2--4-4--4-4-------------6--6-6--2--2-2--4--4-4--|
    E|------9---------6---------2---------4--------2--2-2--------------------------|
    
    G|-------------------------------------------------|
    D|-------------------------------------------------|
    A|--6--6-6--4--4-4---------4-6--6-6--2--2-2--4--4--|
    E|------------------2--2-2-------------------------|
    
    G|-------------------|--11/13-11---------------|
    D|-------------------|-----------13-11—8p7-----|
    A|----------------9--|----------------------9--|
    E|--2-2-2-2-2/7-9----|-------------------------|
    
    G|--------------------------------------------------------|
    D|--------------------------------------------------------|
    A|----------------9-9-9-9-9/119-7-7-7-7-7-7-8-9-11-12-14--|
    E|--5-5-5-5-5-0-5----------------
  • +
    ¡Colabora con nosotros!
    Envíanos tu versión de esta canción

Letra de Ser Mejor
(1)
Lléname la vida
Dame tranquilidad
Calma el temporal
Que hay en mi piel
'mismos acordes de (1)'
Dame primaveras
Para disfrutar
Días que se van
No han de volver
(2)
Puede ser que la voz
de tu paz y el amor
Me ayuden a cambiar
y me hagan ser mejor
'mismos acorde de (1)'
Perdona mis manías
No doy para más
No se aparentar
Soy como soy
Ángel de la guarda
Ven y sálvame
Sálvame del mal
Ayúdame.
'mismos acordes de (2)'
Puede ser que la voz
De tu paz y el amor
Hoy me ayuden a cambiar
Y me hagan ser mejor.
(3)
Siempre hay en la vida oportunidad
Para amar mejor
No hay que amar de más
Muchos han caído de tanto dar
Y de tanto amar.
'mismo acordes de (1);
Lléname la vida
Dame tranquilidad
Calma el temporal
Que hay en mi piel
'mismos acordes de (1)'
Dame primaveras
Para disfrutar
días que se van
no han de volver
'mismos acordes de (2)'
Puede ser que la voz
De tu paz y el amor
Me ayuden a cambiar
y me hagan ser mejor
1er
traste

Video de Ser Mejor
[]




[Ser Mejor chords][Ser Mejor cifra]
© LaCuerda.net · aviso legal · privacidad · es · en · pt · contacto