Acordes de Guitarra » R »Robbie Williams » Angeles (Tab)

Angeles
Robbie Williams

Letras, Acordes y Tabs para Guitarra, Bajo y Ukulele

  •             E            A            C#m  B
    Así es la ley. Hay un ángel hecho para mí.
           E                                  Asus2    C#m   B
    Te conocí... el viento se me fue tal como llego
            A          Asus2
    Y te falle, te hice daño
    E             C#m
    Tantos años yo.
             D                     A
    Pase por todo sin pensar. Te ame sin casi amar
            E
    Y al final quien me salvo
      D                  E
    El ángel que quiero yo...
    
    ***Coro***
    
    (E)            B                      C#m
    De nuevo tuuuuuuu te cuelas en mis huesos
                    A                E
    
  • Intro: E
    
    E                           A            C#m
    Asi es la Ley.Hay un angel echo para mi.
    B          E                    A              C#m
    Te conoci, el tiempo se me fue,tal como llego.
      B          E               A              C#m
    Y te falle, te hice daño, tantos años yo...
    
    pre-coro:
                D
    Pase por todo sin pensar,
           A
    te ame sin casi amar,
        E
    y al final quien me salvo.
    D        A          E
    el angel que quiero yo.
    
    coro:
    
  • versos (en el 1º verso no hay bajo)
    G|-----------------|-----------------|-----------------|-----------------||
    D|-----------------|-----------------|-----------------|-----------------||
    A|-----------------|-----------------|-0--0--0-0--0--4-|-2--2--2-2--2--2-||
    E|-0--0--0-0--0--0-|-0--0--0-0--0--4-|-----------------|-----------------||
    
    G|-----------------|-----------------|-----------------|-----------------|
    D|-0--0--0-0--0--0-|-----------------|-----------------|-0---0-----------|
    A|-----------------|-4--4--4-4--4--4-|---------------0-|---------4---4---|
    E|-----------------|-----------------|-0--0--0-0-2-4---|-----------------|
    
    G|-----------------|
    D|-----------------|
    A|-----------------|
    E|-0-0-0-0-0-0-0-0-|
    
    estribillo
    G|-----------------|-----------------|-----------------|-----------------|
    D|-----------------|-----------------|-----------------|-----------------|
    A|-2--2----2--2--2-|-4--4----4--4--4-|-0--0----0--0--0-|---------------0-|
    E|-------2------
  • +
    ¡Colabora con nosotros!
    Envíanos tu versión de esta canción

Letra de Angeles
Asi es la Ley.Hay un angel echo para mi.
Te conoci, el tiempo se me fue,tal como llego.
Y te falle, te hice daño, tantos años yo...
pre-coro:
Pase por todo sin pensar,
te ame sin casi amar,
y al final quien me salvo.
el angel que quiero yo.
De nuevo tu, te cuelas en mis huesos
dejandome tu beso, junto al corazon.
Y otra vez tu,abriendome tus alas
me sacas de las malas,rachas de dolor.
por que tu eres.
El angel que quiero yo.
Cuando estoy fatal,ya no se que hacer,ni a donde ir
me fijo en ti y te siento cerca,pensando en mi.
pre-coro:
El cuerpo se me va
hacia donde tu estas
mi vida cambio
El angel que quiero yo.
De nuevo tu, te cuelas en mis huesos
dejandome tu beso, junto al corazon.
Y otra vez tu,abriendome tus alas
me sacas de las malas,rachas de dolor.
por que tu eres.
El angel que quiero yo.
la parte del punteo se repiten las notas del pre-coro unas 4 veces creo
y finaliza con el coro.

Video de Angeles
[]




[Angeles chords][Angeles cifra]
© LaCuerda.net · aviso legal · privacidad · es · en · pt · contacto