Acordes de Guitarra » R »Rigo Tovar » Lamento de amor (Tab)

Lamento de amor
Rigo Tovar

Letras, Acordes y Tabs para Guitarra, Bajo y Ukulele

  • Intro:F rasgueado
    
                                     A#    
    Hace tiempo que me agovia la tristeza
            C7                           F    
    y el recuerdo de su amor me hace llorar
             Dm                                     Gm       
    me acompana el sufrimiento por doquiera que yo ando
           C7                      F    
    y no puedo yo vivir sin su querer
    
    
                                          A#     
    Por las noches le pregunto a las estrellas
            C7                         F     
    que me digan si se acuerda de mi amor
            Dm                      Gm        
    mas no logro conseguir mas soluciones
             C7                    F  F7   
    que una languida en la obscuridad
    
  • Intro:F rasgueado
    
    F                                 Gm
    Hace tiempo que me agovia la tristeza
                         C7              F
    y el recuerdo de su amor me hace llorar
             Dm                                     Gm
    me acompana el sufrimiento por doquiera que yo ando
           C7                      F
    y no puedo yo vivir sin su querer
    
    
                                          Gm
    Por las noches le pregunto a las estrellas
            C7                         F
    que me digan si se acuerda de mi amor
            Dm                      Gm
    mas no logro conseguir mas soluciones
             C7                    F       F7
    que una languida luz entre la obscuridad
    
  • Este es el requinto de la parte intermedia.
    Disfrutenlo.
    
    E --5-8-5---5------------------------------
    B --------6---6---------5-6--6-6-5-6-7-8---
    G --------------5---5-7--------------------
    D -----------------------------------------
    A -----------------------------------------
    E -----------------------------------------
    
    E --------6-----6----------------------------5--
    B --8-8-8---8-5---8-5---5-6-7-8--8-8-8-6-5-6----
    G ----------------------------------------------
    D ----------------------------------------------
    A ----------------------------------------------
    E ----------------------------------------------
    
    E --13-12-10-13-12-10-12---10-8--12-10-8--10--
    B --15-13-11-15-13-11-13---11-10-13-11-10-11--
    G --------------------------------------------
    D --------------------------------------------
    A --------------------------------------------
    E --------------------------------------------
    
    E --8--6-10-8--6-8----13-13-13-
    B --10-8-11-10-8-10---15-15-15-
    G -------
  • +
    ¡Colabora con nosotros!
    Envíanos tu versión de esta canción

Letra de Lamento de amor
Hace tiempo que me agovia la tristeza
y el recuerdo de su amor me hace llorar
me acompana el sufrimiento por doquiera que yo ando
y no puedo yo vivir sin su querer
Por las noches le pregunto a las estrellas
que me digan si se acuerda de mi amor
mas no logro conseguir mas soluciones
que una languida en la obscuridad
Donde te has ido mujer
no lograras encontrar
otro carino como este
Ven regresa por favor
ya no quieras lastimar
tanto vacio en mi corazon
que lo tengo adolorido de tanto padecer
Por...(etc)
Gracias , gracias, gracias..:D!




[Lamento de amor chords][Lamento de amor cifra]
© LaCuerda.net · aviso legal · privacidad · es · en · pt · contacto