Acordes de Guitarra » R »Reyli » Tú (Tab)


Reyli

Letras, Acordes y Tabs para Guitarra, Bajo y Ukulele

  • E:   022100
    A:   002220
    Esus:020200
    C#m7:446654
    F#m: 224422
    
    Intro:
    
    A - C#m7 - D (2)
    
    A                   C#m7
    Eras fantasía, un presentimiento
    D                   E
    un murmullo del viento,
    A                        C#m7
    no se donde estabas,  pero te veía
    D                   E
    te esperaba en silencio.
    
    
    
  • A             E
    Eras fantasía, un presentimiento
    Bm7              E
    un murmullo del viento,
    A                    E
    no se donde estabas,  pero te veía
    Bm7             E
    te esperaba en silencio.
    
    
    F#m    C#m7 D
    Déjame ser tu mitad...
    F#m      C#m7      D    E
    dime que nunca te iras.
    
    
    A                E
    Tu, como nadie mas
                     Bm7
    lo que quise siempre
    
  • A - E - D - A - E - D
    
    A                   E
    Eras fantasía, un presentimiento
    D                   E
    un murmullo del viento,
    A                    E
    no se donde estabas,  pero te veía
    D                     E
    te esperaba en silencio.
    
    F#m     E         D
    Déjame ser tu mitad...
    F#m       E         D   (E)
    dime que nunca te iras.
    
    A               E
    Tu, como nadie mas
                     D
    lo que quise siempre
    
  • Intro    A   E/G#   D   (2)
    
    A                   E/G#
    Eras fantasía, un presentimiento,
    Bm7                   E
    un murmullo del viento.
    
    No sé donde estabas, pero te veía,
    te esperaba en silencio.
    
    PRE
    F#m       E       D
    Déjame ser tu mitad
    F#m       E       D    E
    dime que nunca te irás.
    
    CORO
    A                E/G#
    Tú, como nadie más,
                     Bm
    
  • E-----------------------------------------------------------------0-----------------------------
    B-----2----0/2---0------------------------------2---0/2--0--2-----------3------------------
    G-----2--------------2/4---2------------2/4----2-----------------2--------------------------
    D---------------------------------2/4---------------------------------------4-----------------
    A-----0------------------------------------------0--------------------------------------------
    E-----------------------------------------------------------------------------------------------
    
                Eres fantasía         un presentimiento          un murmullo del viento
    E-----------------------------------------------------------------------------------------------
    B----2--------------------0--------------------------0/2--3----------------------------3-----
    G----2--------------------1--------------------------------2----------------------------4----
    D----2--------------------2--------------------------------0----------------------------4----
    A----0--------------------0--------------------------------------------------------------2----
    E-----------------------------------------------------------------------------------------------
    
                No sé dónde estabas                   pero te veía         te esperaba en silencio
    E--------------------------------------0---------------------------------------------------------
    B-----2-----------------------------2------0----------------0/2--3-------------------------3--
    G-----2---------------------------2--------1----------------------2-------------------------4--
    D-----2-------------------------2----------2----------------------0-------------------------4--
    
  • +
    ¡Colabora con nosotros!
    Envíanos tu versión de esta canción

Letra de Tú
Eras fantasía, un presentimiento
un murmullo del viento,
no se donde estabas, pero te veía
te esperaba en silencio.
Déjame ser tu mitad...
dime que nunca te iras.
Tu, como nadie mas
lo que quise siempre
hasta la muerte,
mi debilidad,
lo que me hace fuerte...
estoy apunto de llorar,
te entrego mi vida,
cuando me lo pidas...
ohu
tu, tututu tu tu tu...
Eras melodía, de mis sentimientos
el refugio perfecto,
no hace falta nada,
ya no importa el tiempo,
por que estoy enamorado,
me alejaste del pasado...
Tu, como nadie mas
lo que quise siempre
hasta la muerte,
mi debilidad,
lo que me hace fuerte...
estoy apunto de llorar,
te entrego mi vida,
cuando me lo pidas...
ohu
tu, tututu tu tu tu...




[Tú chords][Tú cifra]
© LaCuerda.net · aviso legal · privacidad · es · en · pt · contacto