Acordes de Guitarra » R »Reyli » Al fín me armé de valor (Tab)

Al fín me armé de valor
Reyli

Letras, Acordes y Tabs para Guitarra, Bajo y Ukulele

  •            Dm                           Gm
    Estoy tan solo, desamparado tocando fondo
                  C M                              F M - Bb   A7
    Que en un desierto sudando frió mordiendo el polvo
                   Dm                          Gm
    Pidiéndole a gritos a mi pasado que me responda
                       Dm                A7
    PA entender tu partida pa curarme la vida
                       Dm
    Pa que ya no me jodas
    
             Bb    A7                              Dm
    Me canse de esperarte de dia de no che de madrugada
                                 A
    Rogándole adiós por que regresaras
                                  Dm,
    Bebiéndome el llanto de mi dolor
             Bb        A7
    Se que tu no lo entiendes
                               Dm
    
  • ------------------------------------------------
    
               Dm                           Gm
    Estoy tan solo, desamparado tocando fondo
                  C                              F   - Bb-A7
    Que en un desierto sudando frió mordiendo el polvo
                   Dm                          Gm
    Pidiéndole a gritos a mi pasado que me responda
                       Dm                A7
    Pa' entender tu partida pa' curarme la herida
                       Dm
    Pa' que ya no me jodas
    
    
    --Coro--
             Bb    A7                              Dm
    Me cansé de esperarte de día de noche de madrugada
                                 A
    Rogándole a diós por que regresaras
                                  Dm
    
  • las dos transcripciones anteriores suenan muy bien
    (es mas creo que son iguales)
    asi que cualquiera de las dos las pueden usar con este tab
    
    INTRO
    
    
    E--------------------------|----------------------------
    B--------------------------|----------------------------
    G--------------------------|--7H-8P-7-----7-------------
    D--------------------------|-----------10----7----------
    A----------5--8--5---------|----------------------------
    E----5--8------------------|----------------------------
    
    
    
    E--------------------------|----------------------------
    B--------------------------|--8H-10P-8-----8------------
    G--------------------------|------------10----9---------
    D--------------------------|----------------------------
    A----------5-----8-------5-|----------------------------
    E----5--8------------------|----------------------------
    
    
    
    E--------------------------|----------------------------
    B--------------------------|----------------------------
    G--------------------------|--7H-8P-7-----7----
  • +
    ¡Colabora con nosotros!
    Envíanos tu versión de esta canción

Letra de Al fín me armé de valor
Estoy tan solo, desamparado tocando fondo
Que en un desierto sudando frió mordiendo el polvo
Pidiéndole a gritos a mi pasado que me responda
PA entender tu partida pa curarme la vida
Pa que ya no me jodas
Me canse de esperarte de dia de no che de madrugada
Rogándole adiós por que regresaras
Bebiéndome el llanto de mi dolor
Se que tu no lo entiendes
Por eso no quiero volver a verte
Chingar a su madre con lo que piensen
Al fin me arme de valor
Cerré la puerta y las ventanas de un solo golpe
Para olvidarte llore de rabia como los hombres
Entre mis sueños te apareciste un par de noches
Escuche tus mentira te arranque de mi vida
Me olvide de tu nombre.
Me canse de esperarte de dia de no che de madrugada
Rogándole adiós por que regresaras
Bebiéndome el llanto de mi dolor
Se que tu no lo entiendes
Por eso no quiero volver a verte
Chingar a su madre con lo que piensen
Al fin me arme de valor




[Al fín me armé de valor chords][Al fín me armé de valor cifra]
© LaCuerda.net · aviso legal · privacidad · es · en · pt · contacto