Acordes de Guitarra » R »Reincidentes » Vicio (Tab)

Vicio
Reincidentes

Letras, Acordes y Tabs para Guitarra, Bajo y Ukulele

  • ESTA TABLATURA ME ATREVO DECIR QUE ES CASI IDENTICA ECEPTO POR EL 
    SOLO QUE ENVERDAD NO LO SE SACAR... ESPERO SE DISFRUTEN LA CANCION
    EN UNA DE MIS PREFERIDAS... AHHHHH!! Y UN SALUDO A MIS AMIGOS DE 
    *KABULA* (UNA BANDA DE PUNK, DE PUERTO RICO)
    
    ===================================================================
    (PRIMERA GUITARRA)
    e|----------------------------------------------------------------|
    B|----------------------------------------------------------------|
    G|----------------------------------------------------------------|
    D|--0-0-3-3-2-2-0-0----3-3-2-2-----0-0-3-3-2-2-0---3--------------|
    A|------------------1-1--------3-3---------------1---3------------|
    E|----------------------------------------------------------------|
    
    (SEGUNDA GUITARRA)
    e|----------------------------------------------------------------|
    B|----------------------------------------------------------------|
    G|-------------------------------------------------10-9-----------|
    D|---------------
  • 1er SOLO
    
    
    E---5-3-1-3-1--1-------------------------------1-5-3-1-3--
    B------------3--3-1------------------------1-3------------
    G-------------------2-0-2-0--0-----------2----------------
    D---------------------------3--3-----0-3------------------
    A--------------------------------1-3----------------------
    e---------------------------------------------------------
    
      Tapping............................
    E-8-5-3-8-5-3-8-5-3-8-5-3-8-5-3-8-5-3--5--5-5-6-5-3-1-3-1------
    B--------------------------------------------------------3-1---
    G-----------------------------------------------------------2-0
    D--------------------------------------------------------------
    A--------------------------------------------------------------
    e--------------------------------------------------------------
    
    E---3b---10-8-8--3-1-0-1-0--0--------------------
    B--------------------------3--1--------------1-3-
    G--------------------------------2--------0-2----
    D--------------------------------------0-2-------
    A----------
  • -----
    
    E|-------------------------------------------------------|
    B|-------------------------------------------------------|
    G|-------------------------------------------------------|
    D|--0-0-3-3-2-2-0-0----3-3-2-2-----0-0-3-3-2-2-0---3-----|
    A|------------------1-1--------3-3---------------1---3---|
    E|-------------------------------------------------------|
    
    D                 A#                D                A# F6 C
    
    Videojuegos,tragaperras en el bingo,cafe y copa todo vicio
    Crea adiccion,revistas del corazon,peluqueria todo vicio
    
    D              A#          D                     A#     F6 C
    Salir a follar pagando con cualquiera ke no sea tu mujer
    Ir a la peña,cubatear y el futbol como fuente de lucidez
    
    D    A#          F6       C
    Sin vicio no puedo estar vicio,vicio
    
  • Esta cancion es facil si le prestas atencion a la tablatura
    si tienes dudas me escribes... y quiero darle saludos a mis amigos
    de KABULA como siempre....
    
    G|---------------------|
    D|---------------------|
    A|-----------------8-7-|
    E|-------------6-6-----|
    
    G|---------------------|
    D|---------------------|
    A|-5-5-----5-5-----8-7-|
    E|-----6-6-----6-6-----|
    
    G|------------------------------|
    D|------------------------------|
    A|-555555--------555555-----8-7-|x2
    E|--------666666--------6-6-----|
    
    G|---------------------|
    D|---------------------|
    A|-5-5-----5-5-----8-7-|x2
    E|-----6-6-----6-6-----|
    
    G|------------------------------|
    D|------------------------------|
    A|-555555--------555555-----8-7-|x2
    E|--------666666--------6-6-----|
    
    G|------------------------------|
    D|------------------------------|
    A|-555555--------888888---------|x2
    E|--------666666--------8-8-8-8-|
    
    G|---------------------|
    D|---------------------|
    A|-5-5-----5-5-----8-7-|x2
    E|-----6-
  • +
    ¡Colabora con nosotros!
    Envíanos tu versión de esta canción

Letra de Vicio
Videojuegos,tragaperras en el bingo,cafe y copa todo vicio
Crea adiccion,revistas del corazon,peluqueria todo vicio
Salir a follar pagando con cualquiera ke no sea tu mujer
Ir a la peña,cubatear y el futbol como fuente de lucidez
Sin vicio no puedo estar vicio,vicio
Sin vicio no quiero na en tu casa
Y asi todo el rato,luego hay un cambio entre medias de los dos
solillos
No paran de criticar,
o mas bien despotricar,
la juventud busca su perdicion
con tanto vicio




[Vicio chords][Vicio cifra]
© LaCuerda.net · aviso legal · privacidad · es · en · pt · contacto
DINAMICO