Acordes de Guitarra » R »Recarga » Las buenas epocas (Tab)

Las buenas epocas
Recarga

Letras, Acordes y Tabs para Guitarra, Bajo y Ukulele

  • 1------------------------------------------------|
    2------------------------------------------------|
    3------------------------------------------------|
    4------------------------------------------------|
    5-3-3-3---6-6-6---5-5------------5-5-5---3-3-----|
    6-------------------------6-6-6------------------| ----] x 4
    LUEGO YA CON EL COMPAS
    También acompañado con las mismas quintas
    1------------------------------------------------|
    2------------------------------------------------|
    3------------------------------------------------|
    4------------------------------------------------|
    5-3-3--6-6--5-----------5-5---3------------------|
    6--------------------6-6-------------------------| ----] x 4
    
    C5                     A#5
    Creo ke hoy yo pude entender
                                G#5
    Ke no hay nada ke importe entender
                                A#5               F5*-D#5-D5-C5
    
  • +
    ¡Colabora con nosotros!
    Envíanos tu versión de esta canción

Letra de Las buenas epocas
LUEGO YA CON EL COMPAS
También acompañado con las mismas quintas
Creo ke hoy yo pude entender
Ke no hay nada ke importe entender
Ke me importa una mierda lo ke ellos digan de mi vida
(USAR LOS MISMOS ACORDES DE LA PRIMERA ESTROFA)
Y sé! Ke pueden saber ke no es verdad
Pero se ke igual lo dirán
Tal vez así su vida es mas interesante de lo ke en verdad es
Hey Ho
Cuando la vida pierde razón
Hey Ho
Podras vivir de tu corazón
(USAR LOS MISMOS ACORDES DE LA PRIMERA ESTROFA)
Soy distinto y no kiero ser
Parte de lo ke tu suelas ver
De esta puta moda ke nos enferma de hipocresía
Creo ke voy a vomitar
Necesito realmente escapar
Busco algo nuevo
Una recarga a esta rutina
Hey Ho
Cuando la vida pierde razón
Hey Ho
Podras vivir de tu corazón [X2]
Trato de recuperar lo ke el tiempo se llevó
Me enferma el presente y la mentalidad de sufrir
Y seguir sufriendo mas…
AQUÍ EL BAJO SIGUE HACIENDO LAS QUINTAS (C5-A#5-G#5-A#5)
Cansado de sobrellevar la mierda ke me rodea --] x4
(acompañado por el intro)
DESDE AKI ACOMPAÑANDO POR LAS 8vas.
(*) Significa hacer las veces ke sea conveniente
Cansado de sobrellevar la mierda ke me rodea
Cansado de sobrellevar la mierda ke me rodea
De esta puta moda de peinados polos apretados
De! negro con rosado y un color ke has inventado
No! Kiero saber mas kedate en donde estas
Muy lejos de mi, por ke la vida vale algo para mi
¡¡ESPERO KE LES SIRVA!!...SALUDOS PARA LA BANDA
"SERO GRADOS"- HUANCAVELICA
(BRANS,ZAMUEL,BRANDON,JOEL))
CUALQUIER DUDA O CRITICA A joel_janb3@hotmail.com

Video de Las buenas epocas
[]




[Las buenas epocas chords][Las buenas epocas cifra]
© LaCuerda.net · aviso legal · privacidad · es · en · pt · contacto
DINAMICO