Acordes de Guitarra » R »Recarga » Niña de trapo (Tab)

Niña de trapo
Recarga

Letras, Acordes y Tabs para Guitarra, Bajo y Ukulele

  • NIÑA DE TRAPO – RECARGA 
    
        *Intro*                (X3)
    1|-------------------||------------||------------|
    2|-------------------||------------||------------|
    3|-------------------||------------||------------|
    4|---------9-8-6~~---||------4/6---||------------|
    5|--9^11^9-----------||--6-6-2/4---||--2-2-4-4---|
    6|-------------------||--4-4-------||--0-0-2-2---|
        (X3)
    |------------||------||------------------||
    |------------||------||------------------||
    |------------||------||------------------||
    |------4/6---||------||--------9-8-6~~---||
    |--6-6-2/4---||--2---||--9^11^9----------||
    |--4-4-------||--0---||------------------||
    
    * Verso I *
    
           (X3)
    1|------------|------------||
    2|------------|------------||
    3|------------|------------||
    4|------4/6---|------------||
    5|--6-6-2/4---|--2-2-4-4---||
    6|--4-4-------|--0-0-2-2---||(X4)
    
    |------------||
    |------------||
    |------------||
    |------------||
    |--2~~-4~~---||
    |--0~~-2~~---|| P.M
    
    |---------||
    |---------||
    |---------||
    |-
  • +
    ¡Colabora con nosotros!
    Envíanos tu versión de esta canción



Video de Niña de trapo
[]




[Niña de trapo chords][Niña de trapo cifra]
© LaCuerda.net · aviso legal · privacidad · es · en · pt · contacto
DINAMICO