Acordes de Guitarra » R »los Ratones Paranoicos » Píntalo de negro (Tab)

Píntalo de negro
los Ratones Paranoicos

Letras, Acordes y Tabs para Guitarra, Bajo y Ukulele

  • e----5---7---8---10---8---7---5---5---4---5---7---5---4|
    B------------------------------------------------------|
    G------------------------------------------------------|
    D------------------------------------------------------|
    A------------------------------------------------------|
    E--0---0---0---0----0---0---0---0---0---0---0---0---0--|
    
    Segunda parte
    0-2-4-5--5-4-2-4-|
    -----------------|
    -----------------|
    -----------------|
    -----------------|
    0-----0--0-----0-|
    
    
    
    
    Em
    Veo una puerta roja
    
  • +
    ¡Colabora con nosotros!
    Envíanos tu versión de esta canción

Letra de Píntalo de negro
Segunda parte
0-2-4-5--5-4-2-4-|
Veo una puerta roja
y quiero que sea negra
ya basta de colores yo quiero q vuelva
veo pasar las chicas vestidas de color
debo sangrar la cara para ver el sol
hay una fila de autos y todos son negros
con flores y mi amor ninguno volvera
la gente mira de costado y luego se va
es como cuando piden algo que esta por pasar
ya nunca mas mi mar sera de azul oscuro
yo no puedo saber si esto pasara
si miro fijo al sol desde el atardecer
me aburrire un domingo hasta el amanecer...
Veo una puerta roja y quiero que sea negra
ya basta de colores quiero que se vuelva
veo pasar las chicas vestidas de color
debo sangrar la cara para ver el sol
Quisiera ver tu rostro pintado de negro
negro como la noche
negro como el miedo
no quiero ver el sol brillando por el lugar
quiero verlo de negro, por que no lo pintas?
Espero que les ayude, es mi primera transcripcion!
Saludo a la barra del Nolasco y Velez!
AGUANTE EL ROJO




[Píntalo de negro chords][Píntalo de negro cifra]
© LaCuerda.net · aviso legal · privacidad · es · en · pt · contacto
DINAMICO