Acordes de Guitarra » R »los Ratones Paranoicos » Carol (Tab)

Carol
los Ratones Paranoicos

Letras, Acordes y Tabs para Guitarra, Bajo y Ukulele

  •  F#7  SI#7  MI7  DO#7  RE7   RE7sus
    e-2----2-----7----4-----5------7----
    G-2----3-----9----5-----7------7----
    B-3----2-----7----4-----5------5----
    D-2----4-----9----6-----7------7----
    A-4----2-----7----4-----5------5----
    E-2---------------------------------
    
    LAm    F#7
    carolina
    SI#7         MI7
    ya no hay tiempo para mi
    LAm     F#7
    es de dia
    SI#7           MI7
    y en el carro voy a ir
    
    (LA-LA-LA-SOL#-SOL -SOL -SOL ) 2 veces
    
    mismas notas que en parte 1
    
  • Este fill va al final de la canción:
    
    2:22
    
    E ---------------3-1-3--3-------5------------------
    B ----3-5~~----3------5-------5---7/9~~~---9-7-9~~-
    G --5--------5--------------7------------7---------
    D -------------------------------------------------
    
    2:30
    
    E -------------------------5--------------------
    B ----3v/5~~--------------5--h7/9v---7-11-7-10--
    G --5---------9-7-7/9/7-------------------------
    D ----------------------------------------------
    
    
    ... estoy cubierto en la sala...
    
    2:43
    
    E ----------------------------------------------------------------------
    B ----------------------------------------------------------------------
    G -16/17v~~~-19^-17-18~~~-18p16-15-16-13/15----16-18^-16-17~~~-17p15-14-
    D ----------------------------------------------------------------------
    
    
    
    ~ = sostener
    / = deslizar
    v = vibrato
    h = hammer-on
    p = pull-off
    ^ = estirar 1/2 tono
  • Intro
    G|---------------------------------------------------------
    D|---------------------------------------0-2-2---0-2-2-----
    A|---------------------------0-2-2-2-4-4-------4-------4-0-	 x2
    E|-5-5-5-0-5-0-4-2-2-2-0-2-0-------------------------------
    
    
    ** Verso: igual a Intro **
    
    
    Puente
    G|-------------------2---
    D|-------7-6-5-5---------
    A|---------------3h4---4-	x2
    E|-5-5-5-----------------
    
    
    ** Verso: igual a Intro **
    
    
    ** Puente **
    
    
    Estribillo
    G|-----------------------------2-2h5-4-2----------------
    D|-------4-4-----------------4--------------------------
    A|-----------7-4--4-4-4--4h5-------------5\-------2-4-5-	x2
    E|-5-5-5------------------------------------0-3-4-------
    
    G|-----------------------------------------
    D|-----------------------------------------
    A|-------------------2h5-5-5-5-5-5-5-5-5-5-
    E|-3-3-3-3-3-3-3-3-3-----------------------
    
    G|-----------------------------------------
    D|-----------------------------------------
    A|-------------
  • +
    ¡Colabora con nosotros!
    Envíanos tu versión de esta canción

Letra de Carol
carolina
ya no hay tiempo para mi
es de dia
y en el carro voy a ir
mismas notas que en parte 1
a buscarla por un puente algo gris
muchas veces vuelcan autos hacia aqui
parte 2
carolina, tu voz ya no quiere entrar
enseguida, quiero saber como estas
mismos acordes que en parte 2
todo el tiempo tengo ganas de subir
carolina tu cancion es para mi
parte 1(mismos acordes)
es de dia tu, tu voz ya no quiere entrar
carolina, tu cancion es para mi




[Carol chords][Carol cifra]
© LaCuerda.net · aviso legal · privacidad · es · en · pt · contacto