Acordes de Guitarra » R »Rata Blanca » Patria (Tab)
  • Tablatura
      Csus4  A#     G#   G  
    TAMBIÉN ES EL RIFF1
    e-------------------------------------------------------
    B-------------------------------------------------------
    G-------------------------------------------------------
    D------5-----5-----3-----0-1-0--------------------------------
    A----6-----5-----3-----1-------1-----------------------------
    E--8-----6-----4-----3--------------------------------------
        
       RIFF1                   
    A.- Quienes son los que poseen
                           (E:1-2-3)FILL1
        esa extensa soledad
       RIFF1                             
        contarán, en el juicio final
    
        una historia criminal.
    
    FILL1
    e-------------------------------
    
  • Tablatura
    e|------------------------------------
    B|------------------------------------
    G|------0-----0-----------------------
    D|----1-----0-------3-----0-1-0-------
    A|--3-----1-------3-----1-------1-----
    E|--------------4-----3-----------3---
    
    
    Riff 1
    Quienes son los que poseen
    esa extensa soledad
    contarán, en el juicio final
    Fill 1
    una historia criminal.
    
    
    Fill 1
    e|----------------------------------------
    B|----------------------------------------
    G|------0-----0---------------------------
    
  • Tab p/Bajo
    intro 
    
    1 --------------
    2 --------------
    3 --3--1--------
    4 --------4--3--
    se repite dos veces
    
    estrofa 1
    
    1 --------------
    2 --------------
    3 --3--1--------
    4 --------4--3--
    se repite 4 veces
    
    estribillo 1
    
    1 ------------------------------------
    2 ------------------------------------
    3 --1-----0-3---------1-----3-----3---
    4 -----4-------3---------4-----3------
    
    1 ------------------------
    2 ------------------------
    3 --------3-----3-----1---
    4 --3--1-----1-----4------
    
    solo de guitarra :
    el bajo repite la intro
    
    1 ---------------
    2 ---------------
    3 --3--1---------
    4 --------4--3---
    vendria hacer la intro
    
    verso 2:
    sigue con la intro
    
    1 ------------------
    2 ------------------
    3 --3--1------------
    4 --------4--3------
    
    estribillo 2:
    es lo mismo que el estribillo 1
    pero cuando dice (como cielo y mar)hace esto
    
    1 ----------------------------
    2 ----------------------------
    3 ----------------------------
    4 --4------3-4-3-4-3-4-3-4-3--
    
    
  • +
    ¡Colabora con nosotros!
    Envíanos tu versión de esta canción

Letra de Patria
TAMBIÉN ES EL RIFF1

RIFF1
A.- Quienes son los que poseen
esa extensa soledad
RIFF1
contarán, en el juicio final
una historia criminal.
FILL1

B.- Tus indios murieron por las manos viles
de los que desearon que fueran libres
oh libres, libres, oh libres.
SOLO1
SOBRE INTRO X2

RIFF1
A.- Si hay un Dios que reciba
(E:1-2-3)FILL1
a los muertos en el sur
RIFF1
inmolados, quizàs por defender

la mentira del deber.
B.- Te dieron su vida y ellos fueron miles
son héroes perdidos de la patria libre,
oh libre libres, oh libres
como cielo y ma a a a a a a a ar.
NO SAQUÉ EL ACOMPAÑAMIENTO
SI ALGUNA VEZ LO QUIEREN ESCRÍBANME
viene otra parte a.-
y otra b.- solo es cuestiòn de memoria y repetición.
sugerencias y/o comentarios al
secodechivo@hotmail.com
saludos a mi pana xavier c.
suerte!!!!!!!!!!!!!!!



© LaCuerda.net · aviso legal · privacidad · contacto
DINAMICO