Acordes de Guitarra » R »Rata Blanca » Amor sin fín (Tab)

Amor sin fín
Rata Blanca

Letras, Acordes y Tabs para Guitarra, Bajo y Ukulele

  • DO            FA
    El  mundo .. no  para
    LA -          SOL +
    Y  estas  tan   lejos
    DO +          FA +
    Aun llevo el  calor  tu  excitación
    LA -               SOL +
    Aguardando  tu  regreso
    RE -                    FA +            LA -
    Se  hace  tan  difícil   que  me  cuesta  respirar
                    SOL +
    Si  no  estas  aquí
    RE -             FA +                         LA -
    Tengo  la  esperanza   que  se  vuelva  a  repetir
                   SOL +
    Este  amor  sin  fin
    DO          FA             LA               SOL
    La  lluvia  trae  así  a mí   viejos  recuerdos
    DO                 FA +
    Tu  imaginación  la  vieja  canción
    
  • E-----------13-------------------------------------
    B-15b(17)vv----15b(17)r-13vvv-----13---15b(17)r-13-
    G------------------------------14---14-------------
    D------------------------------12------------------
    A------------------------------15------------------
    E--------------------------------------------------
    
    
    E-------------------------------------------------
    B-------------------------------------------------
    G-12b(14)r--------12vvv--10-9---------------------
    D----------12b(14)-----------12-10-12b(14)r-10vvv-
    A-------------------------------------------------
    E-------------------------------------------------
    
    E-------------------
    B-------------------
    G-7h8-5h7-3h5-------
    D-------------3p2vv-
    A-------------------
    
  • +
    ¡Colabora con nosotros!
    Envíanos tu versión de esta canción

Letra de Amor sin fín
El mundo .. no para
Y estas tan lejos
Aun llevo el calor tu excitación
Aguardando tu regreso
Se hace tan difícil que me cuesta respirar
Si no estas aquí
Tengo la esperanza que se vuelva a repetir
Este amor sin fin
La lluvia trae así a mí viejos recuerdos
Tu imaginación la vieja canción
Y el futuro tan incierto
El primer abrazo y el beso que te di al verte partir
Fuimos tan felices que no puedo concebir
Que hoy no estés aquí
Yo se que soy tu verdad
Y se que a mi lado estas
Aunque el tiempo nos aleje yo te llevo siempre en mi
Aunque el tiempo nos separe mas
Yo te llevo siempre en mi
Y mañana al despertar estaré pensando en ti
Igual que ayer
Estaré pensando en ti
por que e Este amor no puede morir
ya no tendrá principio ni fin
mas allá de lo imposible es mi alma quien te dice
te amaree ……….
Este temita esta especialmente dedicado para
ty Daniela de chantty de te amo muxo
Cualkier duda critica etc
mail chanty_3000_@hotmail.com
los punteos ban después




[Amor sin fín chords][Amor sin fín cifra]
© LaCuerda.net · aviso legal · privacidad · es · en · pt · contacto
DINAMICO