Acordes de Guitarra » R »los Rancheros » Mujer (Tab)
  • Letra y Acordes
    E G#m A B
    
    1)
           E 
    COMO LOCO EN LA CORNISA
                    G#m                   A
    QUE INTENTA SALTAR DESDE LA TORRE MAS ALTA
                      B 
    QUE HAY EN EL LUGAR
                 E
    CUANDO UN SUENO SE  TERMINA
                           G#m
    Y UNO EMPIEZA A DESPERTAR
                    A 
    NECESITA IRSE LEJOS
                       B
    PARA VOLVER A EMPEZAR
    
    AH AH...
    
    
  • Tablatura
    1)------------------------------------------------|
    2)------------------------------------------------|
    3)--------12--14b16--14b16--14--12--11------------|
    4)--12s14-----------------------------------------|
    5)------------------------------------------------|
    6)------------------------------------------------|
    
    1)------------------------------------------------|
    2)------------------------------------------------|
    3)-11--12--14-----------7--9b11--9----------------|
    4)-------------12---7s9---------------------------|
    5)------------------------------------------------|
    6)------------------------------------------------|
    
    1)------------------------------------------------|
    2)------------------------------------------------|
    3)-------12--14b16--14p12--14----12---------------|
    4)-12s14----------------------14------------------|
    5)------------------------------------------------|
    6)------------------------------------------------|
    
  • Tablatura
    Intro:MI - SOL#m - LA - SI (Riff)
       MI - SOL#m - LA - SI
    
    Como un loco en la cornisa
    que intenta saltar
    desde la torre mas alta
    que hay en el lugar,(riff)
    cuando un sueño se termina
    y uno empieza a despertar
    necesita irse lejos
    para volver a empezar.
    
    MI - SOL#m - LA - SI (x2) Riff
    
    Sin sentido fue mi vida
    hasta que te vi
    iluminada en mil colores
    parada frente a mí,
    quisiera saber de ti
    salir a caminar
    
  • Tab p/Bajo
    AYYYYYYYYYYYYYYYYYYYYYY, me da cólera ver que algunas personas
    con tal de figurar en La Cuerda, hacen cualquier cosa, a ver Uds.
    creen que una canción como "Mujer" va a tener una bajo tan simple
    como la anterior tabalatura para bajo, no es por creermela de gran
    cosa, pero es asi. Es por eso que me veo en la urgencia de colgar
    un bajo más parecido al original.
    
    Bueno
    
    Vamos con el bajo
    
    Tienes que escuchar bien la canción para darle el ritmo, tiene unas
    bajadas rápidas, asi que practica tu agilidad. Ahhhh y por cierto,
    esta canción se la quiero dedicar a la chica que curo mis heridas,
    me devolvio la esperanza en el amor, para ti Diana, "sin sentido,
    fue mi vida, hasta que te vi, iluminada en mil colores, parada
    frente a mi!"
    
    ºººINTROººº
    
          E         G#m       A           B
    G|----------|---------|---------|---------------|
    D|----------|---------|---------|-------------9-|
    A|----------|---------|---------|-------6--9----|
    E|-0--00-0--|-4-44-4--|-5-55-5--|--7--7---------|
    
  • +
    ¡Colabora con nosotros!
    Envíanos tu versión de esta canción

Letra de Mujer
1)
COMO LOCO EN LA CORNISA
QUE INTENTA SALTAR DESDE LA TORRE MAS ALTA
QUE HAY EN EL LUGAR
CUANDO UN SUENO SE TERMINA
Y UNO EMPIEZA A DESPERTAR
NECESITA IRSE LEJOS
PARA VOLVER A EMPEZAR
AH AH...
1)
SIN SENTIDO FUE MI VIDA
HASTA QUE TE VI
ILUMINADA EN MIL COLORES
PARADA FRENTE A MI
QUISIERA SABER DE TI SALIR A CAMINAR
POR LAS CALLES OLVIDADAS
POR LOS DIAS QUE VENDRAN
2)
MUJER, MUJER SI EXISTE
EL PARAISO EXISTE EN TI MUJER
1)
CON SU BOCA DE CEMENTO HIERRO LUCES Y ALQUITRAN
Y TODOS CORREN POR SU VIDA Y NADIE MIRA A LOS DEMAS
NECESITO VERTE HOY EN CUALQUIER LUGAR
NECESITO IR CONTIGO A LA ETERNIDAD
2)MUJER...
2)MUJER...
..



© LaCuerda.net · aviso legal · privacidad · contacto