Acordes de Guitarra » R »los Rancheros » Lastima (Tab)
  • Letra y Acordes
    A    F#m    D   E  (solo)
    
    A                               F#m
    No ha salido el sol por noveno dia
                                D
    seguira lloviendo como pesadilla
                                     E
    pero no me importa no le temo al agua.
    A                                  F#m
    ya fue la navidad tambien la vacacion
                                   D
    no pierdo ocasion para decirtelo
                                  E
    eres lo mejor pero te digo adios...
    
    (estribillo)
    A                         F#m
    Lastima,lastima que debo irme
                       D
    lastima que me perdiste
    
  • Tablatura
      1)        A                       2)    F#m
    E ----------------------------------------------------------
    A ----------------------------------------------------------
    D -------------7-----------7----------------7-------7-------
    G ---6/7-6--4-----4--6--4---------6/7-6--4-----4--6----4/6--
    B ----------------------------------------------------------
    e ----------------------------------------------------------
    
    
      3)        D                     4)       E
    E ----------------------------------------------------------
    A ----------------------------------------------------------
    D -------------7-----------7----------------7-------7-------
    G ---6/7-6--4-----4--6--4---------6/7-6--4-----4--6----4----
    B ----------------------------------------------------------
    e ----------------------------------------------------------
    
    
    A                               F#m
    No ha salido el sol por noveno dia
    
  • Tab p/Bajo
    Aca les dejo este sencillo tema:
    
    
    1/-------------|--------------|-------------|-------------|
    2/-------------|--------------|-------------|-------------|
    3/----7-7---77-|----4-4---4-4-|-5-5---5-5---|----2-2---22-|
    4/-5-5---5-5---|-2-2---2-2----|----5-5---55-|-0-0---0-0---|
    
    asi todo el tema...menos en el final.
    
    Les dejo todo correctamente:
    
    -Intro guitarra y bateria- (dura 00:03)
    
    -Hay entra el bajo y hace:
    1/-------------|--------------|-------------|-------------|
    2/-------------|--------------|-------------|-------------| x1
    3/----7-7---77-|----4-4---4-4-|-5-5---5-5---|----2-2---22-|
    4/-5-5---5-5---|-2-2---2-2----|----5-5---55-|-0-0---0-0---|
    
    Luego sigue esto:(el bajo no hace nada)
    
    No ha salido el sol por noveno dia
    seguira lloviendo como pesadilla
    pero no me importa no le temo al agua.
    ya fue la navidad tambien la vacacion
    no pierdo ocasion para decirtelo
    eres lo mejor pero te digo adios...
    
    
    Estribillo:(00:48)
    -Entra el bajo y hace:
    
    Lastima..
    1/-------------|--------------|--
  • +
    ¡Colabora con nosotros!
    Envíanos tu versión de esta canción

Letra de Lastima
No ha salido el sol por noveno dia
seguira lloviendo como pesadilla
pero no me importa no le temo al agua.
ya fue la navidad tambien la vacacion
no pierdo ocasion para decirtelo
eres lo mejor pero te digo adios...
(estribillo)
Lastima,lastima que debo irme
lastima que me perdiste
soy un trotamundo sin remedio...
Lo hiciste todo bien deberias saberlo
la cama,la cena ,el amor,la tregua
la guerra,los besos,y las horas en vela
siempre te amare princesita mia
eres la mas linda,eres mi alegria
pero hay un camino que me esta esperando...
(repite estribillo)...
Se que siempre hay un vacio
cuando marco mi destino
golondrinas sobre el rio
pero aveces me lastimo
y otras tantas tengo frio
Lastima...lastima que debo irme
lastima que me perdiste
soy un trotamundo sin remedio...
...amigos,¡CUIDEMOS EL PLANETA!y conserven
su amor por la musica con letras que no
atacan la buena conducta...
por siempre seran rancheros!!!!



© LaCuerda.net · aviso legal · privacidad · contacto