Acordes de Guitarra » R »los Rancheros » Me cansé de amarte (Tab)

Me cansé de amarte
los Rancheros

Letras, Acordes y Tabs para Guitarra, Bajo y Ukulele

  •    G
    Se terminó;
      Bm
    Y esta ves;
          C           Am7         D
    No quiero mas mentiras para que?
          G              Bm
    No quiero estar fingiendo amor,
         C               Am7
    No queda otra salida,
                     D
    Crucemos esa línea.
    
         G  D       Em
    Me cansé, de amarte,
         C Am7     D
    Y no hay solución,
         G  D       Em
    Me cansé, de amarte,
         C Am7     D
    
  •  G       D
    Se terminó;
    Em       Bm
    Y esta vez;
     C             Am            D
    No quiero mas mentiras para que?
    G             D  Em        Bm
    No quiero estar fingiendo amor,
     C            Am
    Crucemos esa línea
     D              D7
    No queda otra salida.
    
         G  D       Em
    Me cansé, de amarte,
    Bm     C  Am     D
    Y no hay solución,
         G  D       Em
    Me cansé, de amarte,
    Bm     C Am     D
    
  • INTRO: G C X2
    
        G            C           C
    E---3--3--3--------------------------------0-----3--3--3--------
    B---3--3--3------1--1--------1-----1--1----1-----3--3--3--1--1--
    G---0-----0------0--0--------0-----0--0----0-----0-----0--0--0--
    D---0-----0------0--2--------2-----0--2----2-----0--------0--2--
    A---2------------3--3--------3-----3--3----------2--------3--2--
    E---3--------------------------------------------3--------------
                  (ligados)          (ligados)                (ligados)
    
    
          G        Am7                   Bm         Bm7
    E-----3-----------------------------------------------------------
    B-----3--------------1--0------------3-----------------3----------
    G-----0-----------0-------2--0-------4--------------0------0------
    D-----0--------0---------------------4----------4-------------4---
    A-----2-----------------------------------------------------------
    E-----3-----------------------------------------------------------
       Se terminó                   Y   esta ves
    
  • +
    ¡Colabora con nosotros!
    Envíanos tu versión de esta canción

Letra de Me cansé de amarte
Se terminó;
Y esta ves;
No quiero mas mentiras para que?
No quiero estar fingiendo amor,
No queda otra salida,
Crucemos esa línea.
Me cansé, de amarte,
Y no hay solución,
Me cansé, de amarte,
Y no hay solución.
La vida fue,
cambiándote,
No siento tus caricias como ayer,
Aquí no hay otra mujer,
Y yo te estoy dejando,
Muy solo caminando.
Me canse...
Si todo fue,
felicidad,
Guardemos el recuerdo hasta la eternidad,
No quiero estar contigo mas,
No me preguntes nada,
Me iré por la mañana...




[Me cansé de amarte chords][Me cansé de amarte cifra]
© LaCuerda.net · aviso legal · privacidad · es · en · pt · contacto