Acordes de Guitarra » R »Rakim y Ken-Y » Un Sueño (Tab)

Un Sueño
Rakim y Ken-Y

Letras, Acordes y Tabs para Guitarra, Bajo y Ukulele

  • -----3-|-1-1-0-
    -------|-------
    -------|-------
    -------|-------
    -------|-------
    
    RIFF (Esto suena en toda la música)
    
    -0-0-3-1-0----|-0-0-3-1-0-----
    ----------3-1-|----------3-1--
    --------------|---------------
    --------------|---------------
    --------------|---------------
    --------------|---------------
    
    ------0-------|----0-1-0-0----
    -1-1-1-3-1-0--|-1-3-----3-----
    ------------2-|---------------
    --------------|---------------
    --------------|---------------
    
  • +
    ¡Colabora con nosotros!
    Envíanos tu versión de esta canción

Letra de Un Sueño
RIFF (Esto suena en toda la música)
Las horas pasan y yo sigo aquí
Extrañándote, extrañándote
Es como un vicio que me amarra a ti
Yo sigo deseándote
Y cuando cae la noche yo
Imagino que estas conmigo
No puedo vivir si no te tengo
Tú me comienzas a besar
Te juro que no quiero despertar
Y volver a saber la realidad
Que es solo un sueño
Que no te tengo
Que es solo un sueño
Que no te tengo
Abrazando la almohada yo despierto
Soñando que te tengo, me duele porque no es cierto
My te juro que quisiera ser tu dueño
Que conmigo amanezcas y solo te tengo en sueños
Tu no sabes cuanto te extraño me haces daño
Los días se hacen meses y los meses se hacen años
Como duele el no tenerte a ti perderte
Y solamente en mis sueños tenerte
Y cuando cae la noche yo
Imagino que estas conmigo
No puedo vivir si no te tengo
Tú me comienzas a besar
Te juro que no quiero despertar
Y volver a saber la realidad
Que es solo un sueño
Que no te tengo
Que es solo un sueño
Que no te tengo
“espero les guste”




[Un Sueño chords][Un Sueño cifra]
© LaCuerda.net · aviso legal · privacidad · es · en · pt · contacto
DINAMICO