Acordes de Guitarra » R »Rakim y Ken-Y » Te regalo amores (Tab)

Te regalo amores
Rakim y Ken-Y

Letras, Notas, Punteos, Tablaturas y Acordes de Guitarra (Tabs & Chords)

  • Letra y Acordes
    D                 A                 Bm         G - A
    Te he visto sufriendo tan solita y triste...
    D                 A                 Bm         G
    se que vives sintiendo que un amor perdiste...
    
    D              A               Bm
    Te regalo un beso, mil razones
                   G
    para amarte tanto,
    D            Bm
    te regalo tanto...
        G                    A
    prometo así secar tu llanto...
    
    
    [ CORO ]
                  D
    Te regalo amores
                   Bm
    dentro de tu vientre
    
  • Tablatura
               D                A                  B           G       A
    
    E|-------0-0h2--------------0------------------2------------3------0---|
    B|-----3-------3----------2---2--------------3---3----------------2----|
    G|---2----------2-------2-------2----------4-------4--------0----2-----|
    D|-0------------------2------------------4-----------4-----0----2------|
    A|------------------0-------------0----2------------------2------------|
    E|-------------------------------------------------------3-------------|
    
    
    
              D                A                B              G
    
    E|-------0-0h2--------------0-----------------2--------------3---------|
    B|-----3-------3----------2---2-------------3---3--------------3-----3-|
    G|---2----------2-------2-------2---------4-------4--------0------0----|
    D|-0------------------2-----------------4-----------4---------------0--|
    A|------------------0-------------0---2------------------2-------------|
    E|-----------------------------------------------------3---------------|
    
    
  • Tablatura
       D                      Esus4                 Bm
                        uhhhhhhhhh....
    
    e||----------0--0h2-------------------0---------------------2---------
    B||-------3------------------------0-------0-------------3-------3----
    G||----2-------------2----------2---------------------4-------------2-
    D||-0------------------------2---------------------4------------------
    A||-----------------------0-------------------0-2---------------------
    E||-------------------------------------------------------------------
    
       G           Esus4
    e|----------3--------------|
    B|-------3--------------0--|
    G|-------------------2-----|
    D|----5-----------2--------|
    A|-------------0-----------|
    E|-3-----------------------|
    
    
    
    
  • +
    ¡Colabora con nosotros!
    Envíanos tu versión de esta canción

Letra de Te regalo amores
Te he visto sufriendo tan solita y triste...
se que vives sintiendo que un amor perdiste...
Te regalo un beso, mil razones
para amarte tanto,
te regalo tanto...
prometo así secar tu llanto...
Te regalo amores
dentro de tu vientre
pintao' de colores,
dame lo que sientes
pa que no llores,
tengo amor sincero,
amor del bueno...
para llevarte lejos de los dolores,
Entrar en tu vientre
un rio de amores,
dame lo que sientes
pa que no llores,
tengo amor sincero
amor del bueno...
para llevarte lejos de los dolores...
(Se repite la misma secuencia: D - Bm - G - A)
Hoy andas sola en busca de un nuevo amor,
que te de su querer,
y que te diga a ti al oído que te quiere..
porque él te falló,
te engañó, te traicionó, él se fue...
buscando en otra el amor.
Ay hombre,
se que no quieres saber mas de los hombres,
y que no existe nadie más que te asombre,
yo te daré el amor que te corresponde,
te llevaré a donde...
Quiero darle colores a tu día gris,
robar tu corazón y sanar tu cicatriz,
y llevarte de crucero y en el medio del mar
poderte acariciar y poderte besar,
decirte al oído que mi amor es sincero
y que por tí daría todo lo que tengo y mi dinero,
a veces no te encuentro y me desespero
porque siento que si no estás a mi lado me muero...
Ya no llores más por un amor que mal te dejó llorando y sufriendo,
el amor se va y otro llegará,
gota que baja va subiendo
y no pasarás más la vida
solita, sola y llorando,
yo te haré feliz
quedate a mi lado.
Para todas las damas del mundo...
bienvenidas al Castillo.
Rakim y Ken-Y
"La Realeza"
"Pina"
Tu sabes que lo de nosotros es distinto,
fino... y fino...
Rakim y Ken-Y!
Mambo Kings!
Los Reyes...
Pina Records!!
yeah..
Rakim y Ken-Y...
by:
*[The LiRoMaN]*
-Professional Air Guitarist-
Saludos desde Acapulco :P
[ http://www.metroflog.com/LiRoMaN ] ;D



© LaCuerda.net · Aviso Legal · Privacidad