Acordes de Guitarra » P »Protistas » Nortinas War (Tab)

Nortinas War
Protistas

Letras, Acordes y Tabs para Guitarra, Bajo y Ukulele

  • E||----------------------------|
    B||------12------12------------|
    G||--14------14------12--------|
    D||----------------------------|
    A||----------------------------|
    E||----------------------------| Se repite varias veces
    
    "Somos los que van.."
    SOL DO SIm DO
    
    
    
    LEAD GUITAR
    
    
    *Intro
    
    E||-----------------10--------|
    B||--12-----12------------12--|
    G||---------------------------|
    
  • +
    ¡Colabora con nosotros!
    Envíanos tu versión de esta canción

Letra de Nortinas War
"Somos los que van.."
LEAD GUITAR
*Parte 2
3x
*Cambio
*Parte 2
3x
*Acorde Sol
*Parte 3
*Parte 3 no octavada




[Nortinas War chords][Nortinas War cifra]
© LaCuerda.net · aviso legal · privacidad · es · en · pt · contacto
DINAMICO