Acordes de Guitarra » P »Protistas » Granada (Tab)

Granada
Protistas

Letras, Acordes y Tabs para Guitarra, Bajo y Ukulele

  • E||----------------------------------------------------------|
    B||----------------------------------------------------------|
    G||----------------------------------------------------------|
    D||-------7---7------7---7----------7---7------7--7----------|
    A||----8-----8-8--7-----7-7------8-----8-8--7----7-7---------|
    E||----------------------------------------------------------|
    
    
    
    "Tenemos que romper desde..."
    E||----------------------------|
    B||----------------------------|
    G||----------------------------|
    D||-------7---7------7---7-----|
    A||----8-----8-8--7-----7-7----|
    E||----------------------------|
    
    E||----------------------------|
    B||-6-6-6-6-6-6-6-6-6-6-6-6-6--|
    G||----------------------------|
    
  • +
    ¡Colabora con nosotros!
    Envíanos tu versión de esta canción

Letra de Granada
"Tenemos que romper desde..."
B||-6-6-6-6-6-6-6-6-6-6-6-6-6--|
"Los túneles que ves..."
"Necesito que me ayudes a estallar..."
"Mas al ver que la luz..."
"Tenemos que..."
"...abrir un poco más..."
"No sé, donde estarás.."
ACORDES
VERSO
Se repite hasta llegar al precoro, ahí cambia el ritmo.
Tenemos que romper desde la piel,
abrir un poco más, para ver bien.
Los túneles que ves, los glóbulos que van,
el cuerpo está acá, más que afuera.
Necesito que me ayudes a estallar, ah.
Por qué brillan tus pupilas más
al ver que la luz,
desciende para estar,
en nuestra habitación,
revelándola.
Tan frágil y hermosa que parece una granada,
abierta con tanta rabia que nos bota.
PRECORO *Más pausado
Necesito que me ayudes a estallar, ah
Porque brillan tus pupilas,
si el sol no va a estar más, más,
ya lo dijeron los mayas,
hay que ir hacia atrás,
ver lo que hicimos mal.
VERSO
Tenemos que romper desde la piel,
abrir un poco más,
para ver bien.
PRECORO
Necesito que me ayudes a estallar, ah.
Por qué brillan tus pupilas,
si el sol no va a estar más, más
ya lo dijeron los mayas
hay que ir hacia atrás,
ver lo que hicimos mal,
el sol no va a estar más, más
ya lo dijeron los mayas,
hay que ir hacia atrás,
ver lo que hicimos mal.
No sé donde estarás,
cuando pase todo.
No sé si estarás acá, acá, acá.
El sol no va a estar más, mas,
ya lo dijeron los mayas,
hay que ir hacia atrás,
ver lo que hicimos mal.




[Granada chords][Granada cifra]
© LaCuerda.net · aviso legal · privacidad · es · en · pt · contacto
DINAMICO