Acordes de Guitarra » P »los Prisioneros » ¿Quién mató a Marilyn? (Tab)

¿Quién mató a Marilyn?
los Prisioneros

Letras, Acordes y Tabs para Guitarra, Bajo y Ukulele

  • DEL E
    
    
    
    A
    Quiero saber quien fue
    C#
    quiero saber porque sucedió oh oh
    D
    Oh oh dime Marilyn
    B           E
    Dime quien, quien te mato
    A
    Eras tan bella una hermosa mujer
    C#
    quiero saber quien fue
    D
    Dime si fue el presidente
    B           E
    dime si fue algún agente
    
  •     A
    e|---------------------------------------------------------
    B|---------------------------------------------------------  
    G|---------------------------------------------------------
    D|------------------5-5-7-7-5-5-7-7------------------------
    A|--0-0-4-4-5-5-7-7----------------------------------------
    E|---------------------------------------------------------
    
        C#
    e|---------------------------------------------------------
    B|---------------------------------------------------------
    G|-------------------4-4-6-6-4-4---------------------------
    D|------3-3-4-4-6-6--------------6-6-----------------------
    A|--4-4----------------------------------------------------
    E|---------------------------------------------------------
    
        D
    e|---------------------------------------------------------
    B|---------------------------------------------------------
    G|------------------7-7-5-5--------------------------------
    
  • E|---------------------------------------------------------
    B|---------------------------------------------------------
    G|---------------------------------------------------------
    D|------------------5-5-7-7-5-5-7-7------------------------
    A|--0-0-4-4-5-5-7-7----------------------------------------
    E|---------------------------------------------------------
    
        C#
    e|---------------------------------------------------------
    B|---------------------------------------------------------
    G|-------------------4-4-6-6-4-4---------------------------
    D|------3-3-4-4-6-6--------------6-6-----------------------
    A|--4-4----------------------------------------------------
    E|---------------------------------------------------------
    
        D
    e|---------------------------------------------------------
    B|---------------------------------------------------------
    G|------------------7-7-5-5--------------------------------
    D|------4-4-5-5-7-7---------7-7-5-5------------------------
    
  • INTRO
    Entra la bateria y el bajo en LA (13 veces) 
    Luego la guitarra y el bajo hacen la misma figura:
    
    -------------------------------------------------3-3-5-5-3-3-5-5
    -----------------5-5-7-7-5-5-7-7-----2-2-3-3-5-5----------------
    -0-0-4-4-5-5-7-7-----------------3-3----------------------------
    ----------------------------------------------------------------
    
    ------------------7-7-5-5---------------------------------------
    ------4-4-5-5-7-7---------7-7-5-5-----------------6-6-9-9-7-7-6-
    -5-5----------------------------------6-6-7-7-9-9---------------
    ----------------------------------7-7---------------------------
    
    Versos: (Se hace 2 veces antes del coro)
    
     LA                      DO#  
    ------------------------------------------------
    ------------------------------------------------
    -------------------------4-4-4-4-4-4-4-4-4-4-4-4
    -5-5-5-5-5-5-5-5-5-5-5-5------------------------
    
     RE                      SI              mi
    --------------------------------------
  • Este tema lo escribí anteriormente, pero me equivoqué, 
    ahora está corregido, y les aseguro que está bien.
    
    INTRO
    
    G--------------------------------/
    D-------------55-77-55-----------/
    A----44-55-77----------77--------/
    E-55-----------------------------/
    
    G-------------44-66-44-----------/
    D----33-44-66----------66--------/
    A-44-----------------------------/
    E--------------------------------/
    
    G-------------77-55--------------/
    D----44-55-77-------77-55--------/
    A-55-----------------------------/
    E--------------------------------/
    
    G--------------------------------/
    D----------------66-99-87--------/
    A----66-77-99-77-----------------/
    E-77-----------------------------/
    
    
    CANTO
      Quiero saber quién fue
    G--------------------------------/
    D--------------------------------/
    A--------------------------------/
    E--0000000000--------------------/
    
      Quiero saber por qué sucedio
    G--------------------------------/
    D--------------------------------/
    A----
  • Glosario
    ........
    
    
    C (Plato Crash) = X:Normal
    H (Hi-Hat) = x:Cerrado
    S (Caja) = o:Normal
    T (Tom 1) = o:Normal
    F (Tom de Piso-Timbal) = o:Normal
    B (Bombo) = o:Normal
    
    Intro
    ¨¨¨¨¨
    
    C|--------------X-|
    T|ooooooooooooo---|
    F|ooooooooooooo---|
    S|--------------o-|
    
    "Quiero saber, quien fue..."
    
      (_____X18______)
    H|xxxxxxxxxxxxxxxx|
    S|--o---o---o----o|
    B|o---oo--o---oo--|
    
    ---------------------------
    Coro                       |
    ¨¨¨¨                       | |
    "¿Quien mató a Marilyn?"   | |
                               | |
    H|xxxxxxxxxxxxxxxx|        | |
    S|--o---o---o----o|        | |
    B|o---oo--o---oo--|        | |
                               | |
    C|X---X-----X----X----|    | |
    S|--o---o-o---o----o-o|    | |
    B|o---o-----o----o----|    | |
                               | |
    H|xxxxxxxxxxxxxxxx|        | |
    S|--o---o---o----o|        | |
    B|o---oo--o---oo--|        | |
                               | |
    C|X---X-----X----X----|    | |
    S|--o---o-o---o----o-o|    | |
    B|o---o-----o----o----|    | |
       
  • +
    ¡Colabora con nosotros!
    Envíanos tu versión de esta canción

Letra de ¿Quién mató a Marilyn?
Quiero saber quien fue
quiero saber porque sucedió oh oh
Oh oh dime Marilyn
Dime quien, quien te mato
Eras tan bella una hermosa mujer
quiero saber quien fue
Dime si fue el presidente
dime si fue algún agente
Quien mato a Marilyn
La prensa fue o la radio tal vez
Quien mato a Marilyn
La televisión o el ratón Mickey
Quien mato a Marilyn
Dime dime dime quien fue
Dicen que fue un comunista
Dicen que fue un sandinista
Dicen que fue un extremista
o tal vez un alpinista
Dicen que fue tu doctor
Dicen que fue tu amigo intimo
Dicen que fui yo oh no
Dime quien, quien te mato
Quien mato a Marilyn
La prensa fue o la radio tal vez
Quien mato a Marilyn
La televisión o el ratón Mickey
Quien mato a Marilyn
Dime dime dime quien fue
Quien mato a Marilyn
La prensa fue o la radio tal vez
Quien mato a Marilyn
La televisión o el ratón Mickey
Quien mato a Marilyn
Dime dime dime quien fue
Busco en los diarios la explicación
pero la prensa me deja peor
oh dime Marilyn
dime quien, quien te mato
En la tele sonriéndome estas
mis nervios están por estallar
dime si fue Rodrigo Beltran NO!
o tal vez un sex aquaman
Quien mato a Marilyn
La prensa fue o la radio tal vez
Quien mato a Marilyn
La televisión o el ratón Mickey
Quien mato a Marilyn
Dime dime dime quien fue
Dime dime dime quien fue
oh Marilyn, Marilyn
oh Marilyn, Marilyn
oh Marilyn, Marilyn
oh Marilyn, Marilyn




[¿Quién mató a Marilyn? chords][¿Quién mató a Marilyn? cifra]
© LaCuerda.net · aviso legal · privacidad · es · en · pt · contacto