Tablatura para Bajo de los Prisioneros: Por qué los ricos?
Conexión · Inscripción
Letras y Acordes
Pantalla Completa
Imprimir
Versión Texto
Añadir Favorito
Otras Versiones

Mostrar Diagramas
Desfile Automático
Formato del Texto


Por qué los ricos?(BAJ)

los Prisioneros

calidad:
pris0321
AUTOR: Jorge Goonzales
ALBUM: desconocido
Enviado por Guillermo
Bueno amigos, acá va la tab del tema, no sé si me equivoque
en la tab de bajo anterior o fue un error del sistema.

A)INTRO: 
1----------------------/-------------------/--------------------/-------/
2----------------------/-------------------/--------------------/-------/
3----1-3-1------1-3-1--/-------------------/--------------------/-------/
4-1-3-----3--1-3-----3-/-5-5-5-5-6-6-6-6-6-/5-5-5-5-3-3-3-3-3-1-/-1-4-1/


B)
van a sus colegios a jugar
1----------------------------/-
2----------------------------/-
3----------------------------/-
4-1-1-1-1-1-1-1--5-5-5-5-5-5-/-

con los curas, con las monjas de la caridad
1----------------------------/-
2----------------------------/-
3----------------------------/-
4-6-6-6-6-6------8-8-8-8-8-8-/
                           
con sus cuerpos llenos de comida
1----------------------------/-
2----------------------------/-
3----------------------------/-
4-1-1-1-1-1-1-1--5-5-5-5-5-5-/-

crecen como europeos rubios y robustos
1----------------------------/-
2----------------------------/-
3----------------------------/-
4-6-6-6-6-6------8-8-8-8-8-8-/

C)
les limpian el camino de la universidad
1--------------------------/-
2--------------------------/-
3-----6---7--7-7-6--7--7---/-
4--6-----------------------/

le llenan sus libretas de notas sin igual
1--------------------------/-
2--------------------------/-
3-----4--6--6-4-6--6--6----/-
4--4-----------------------/

sus cabezas tienen todo lo que hay...
1--------------------------/-
2--------------------------/-
3-----6---7--7-7-6--7--7---/-
4--6-----------------------/

debe responder
1-------------------/-
2-------------------/-
3-------------------/-
4--4-4-4--2-2-2-2-1-/

B)
Idem 

y en las escuelas numeradas
nos enseñan humildad y resignación
nos explican que está de mas intentar 
pensar siquiera en ser profesional

C)
tu educación es una porquería
yo con estas notas ni siquiera trataria 
dedicate a ladron o esclavo

y nunca trates de entender
1--------------------------/-
2--------------------------/-
3-----------------3-3-3-3--/-
4--4-4-4--2-2-2-2----------/

D) 
coro:
por que por que los ricos
1-------------------------/-
2-------------------------/-
3---------1--3-1----------/-
4--1---3---------3--------/-

    
por que por que los ricos
1-------------------------/-
2-------------------------/-
3---------1--3-1----------/-
4--1---3---------3--------/-
	   
tienen derecho a pasarlo tan bién
1----------------------/
2----------------------/
3----------------------/
4----5-5-5-5-6-6-6-6-6-/

LAm		   DO
tienen derecho a pasarlo tan bién
1----------------------/
2----------------------/
3-----------3-3-3-3-3--/
4---5-5-5-5------------/
  

por que por que los ricos
1-------------------------/-
2-------------------------/-
3---------1--3-1----------/-
4--1---3---------3--------/-

por que por que los ricos
1-------------------------/-
2-------------------------/-
3---------1--3-1----------/-
4--1---3---------3--------/-
	   
tienen derecho a pasarlo tan bién
1----------------------/
2----------------------/
3----------------------/
4----5-5-5-5-6-6-6-6-6-/

si son tan imbeciles como los pobres
1-----------------------------/
2-----------------------------/
3-----------------------------/
4---5-5-5-5--3-3-3-3-3---1----/

(intermedio)
1--------------------------------------/
2---------------3-1--------------------/
3-------------------3-1-------3-3-3-3--/
4---1-1-1-4-1-1---------1-4-1----------/


B) idem a lo anterior

aquí van cruzando su ciudad
taquillando en sus autos o en el de su papá
disfrutando de la juventud
del derecho heredero de ser los dueños de america del sur

C)
a veces unos tienen ganas de igualar
forman entidades juegan a luchar
discursos y recursos, vida intelectual
y todo sigue tan igual
¡tan igual!

D)Coro:
por que por que los ricos
por que por que los ricos
tienen derecho a pasarlo tan bién
tienen derecho a pasarlo tan bién (bis)

por que por que los ricos
por que por que los ricos
tienen derecho a pasarlo tan bién

si son tan imbécies 
1--------------------------/
2--------------------------/
3--------------------------/
4---5-5-5-5--3-3-3-3-3-----/

si son tan imbécies 
1--------------------------/
2--------------------------/
3--------------------------/
4---5-5-5-5--3-3-3-3-3-----/

si son tan imbécies 
1--------------------------/
2--------------------------/
3--------------------------/
4---5-5-5-5--3-3-3-3-3-----/

E) 
y los de arriba siguen
1-----/
2-----/
3-----/
4---6-/

y los de abajo siguen
1-----/
2-----/
3---4--/
4-----/

y nadie tiene ganas 
1-----/
2-----/
3---6-/
4-----/  

de ver un final
1--------/
2--------/
3--9-8---/
4--------/

si los de abajo creen
1-----/
2-----/
3-----/
4---6-/

lo que de arriba dicen 
1-----/
2-----/
3---4--/
4-----/

en quien voy a confiar
1-----/
2-----/
3---6-/
4-----/  

quiza al final me de igual oh oh
1-------------/
2-------------/
3---9----11---/
4-------------/

* intermedio musical(p unteo guitarra) bajo sigue en (B)

dime por que....eh. eh
1-----------------------------------------------------/
2---------------------6-6--------8-8------------------/
3---------8-8---4-4-4----4--6-6-6---6--9-9-9-8-8-8----/
4---6-6-6----6----------------------------------------/

1-----------------------------------------------------/
2---------------------6-6--------8-8------------------/
3---------8-8---4-4-4----4--6-6-6---6--9-9-9-11--11---/
4---6-6-6----6----------------------------------------/


por que por que los ricos...por que por que los ricos...
1-------------------------------------------------------/
2-------------------------------------------------------/
3------6-8-6-------6-8-6---5-5-5-5-6-6-6--5-5-5-8-8-8-8-/
4---6-8-----8---6-8-----8-------------------------------/


nuevamente, es un gusto para mi exponer estas tablaturas.
Dudas, consultas, reclamos....escribanme.
Este fichero es trabajo propio de su transcriptor y representa su interpretación personal de la canción. El material contenido en esta página es
para exclusivo uso privado, por lo que se prohibe su reproducción o retransmisión, así como su uso para fines comerciales.

© LaCuerda.net · Aviso Legal · Privacidad