Acordes de Guitarra » P »los Prisioneros » Para eso está la publicidad (Tab)

Para eso está la publicidad
los Prisioneros

Letras, Acordes y Tabs para Guitarra, Bajo y Ukulele

  •      FA   LAb  SIb  MIb  SOL  DOm  DOm^ REm SOLsus
    e|----1----4----6----6----3----3----8----5----8----|
    B|----1----4----6----8----3----4----8----6----8----|
    G|----2----5----7----8----4----5----8----7----10---|
    D|----3----6----8----8----5----5----10---7----10---|
    A|----3----6----8----x----5----x----10---x----10---|
    E|----x----x----x----x----x----x----x----x----x----|
    
    
    Intro: FA LAb SIb
           MIb SOL s LAb SIb LAb
           MIb SOL s LAb SIb
    
       MIb  SIb   MIb     SIb   (Aquí se alternan los
    He perdido mi criterio      acordes, pero se puede
          LAb  DOm LAb DOm      hacer con un solo Mib)
    has perdido tu criterio
    DOm^         SIb
    nadie mas lo necesita
    
    
  • Hola, aquí está Para eso está la publicidad que es una
    Canción de Los Prisioneros antes de su primer disco La
    voz de los '80 siendo una demo.
    
    El bajo varía mucho y hay que analizar muy bien la can-
    ción para identificar las notas, (en cada verso cambia
    la manera de tocar el bajo)y aquí está mi adaptación:
    
    
    •Introducción:
    
    G|------------------
    D|------------------
    A|------------------
    E|1---4---6---66434-
    
                     O-oh o-o
    G|------------------------
    D|------------------------
    A|-6----------------------
    E|----3444-3-4--6-6444-3-4
    
       Oh-oh-oh-oh-oooh
    G|-------------------------
    D|-------------------------
    A|-6-----------------------
    E|----3444-3-4-6----664-3-4
    
    •Verso 1:
    
      He perdido mi criterio
    G|----------------------------  |
    D|----------------------------  |
    A|--6-6-6--6-6----------------  |
    E|-------------3--4-4-4--4-4-4  |
                                    |
      Nadie más lo necesita         | X2
    G|----------------------------  |
    D|---------------------------- 
  • +
    ¡Colabora con nosotros!
    Envíanos tu versión de esta canción

Letra de Para eso está la publicidad
He perdido mi criterio acordes, pero se puede
has perdido tu criterio
nadie mas lo necesita
ya no se lo que me sirve
tu no sabes lo que sirve
pero no me importa mucho en realidad
compro lo que esta de moda
compras lo que esta de moda
aunque cueste demasiado
ya no tengo nada claro
tu no tienes nada claro
pero no importa mucho en realidad
para eso esta la publicidad
enseña que camino hay que tomar
y tiene mucha razón
da la seguridad que no hay en mi personalidad
quiero ser como esa gente
que anuncia sonriente
un producto de consumo
con su belleza de clase alta,
nos indican que nos falta
para encontrar como ellos la felicidad
ofrecen todo un mundo ideal
a cambio de nuestro dinero
y tienen mucha razon
dan la seguridad que no hay en tu personalidad
Instrumental: Lab Sib Mib Rem Mib
ya ves que comodo es sentir esa seguridad
que te ofrece la publicidad
nos uniforman con la misma personalidad
que sutilmente es impuesta por intereses comerciales
tu sabes, tu sabes, para eso esta la publicidad




[Para eso está la publicidad chords][Para eso está la publicidad cifra]
© LaCuerda.net · aviso legal · privacidad · es · en · pt · contacto
DINAMICO