Acordes de Guitarra » P »los Prisioneros » Por Amarte (Tab)

Por Amarte
los Prisioneros

Letras, Acordes y Tabs para Guitarra, Bajo y Ukulele

  • Am           G      F      E       Am   G  F  E
    Amarte es mi estupidez, es mi  suicidio
    yo debo haber estado  bastante loco
    Amarte  es el peor error inevitable
    si al menos yo estuviera hecho de piedra
    2)
    F         C    E          Am
    Es tan dificil pensar con calma
    F          C     E
    y estoy quemando mi coraz=A2n
    
    
    1)Ser tu due=A4o es un decir no eres de nadie
    exclava de tus sue=F1os y tus complejos
    2)me he perdido en las tormentas
    transpirando amor sobre tu pecho
    
    3)
        Am      F  G  (3)
    Por  amarte
    
  • La cancion empieza con el intro del teclado, el bajo empieza 
    con:
    
    0:08
    G |-----------------------------------------------|
    D |-----------------------------------------------|
    A |---0-0--------0--------------------------------| 
    E |--------3-3-----3----1-1--0-0---1-0------------| 
    
    Esto es lo basico de la cancion
    
    Y asi sigue toda hasta cuando dice:
    
    'En las tormentas' 1:58 (hace un pequeño juego)
    G |------------------------------------------------|
    D |------------------------------------------------|
    A |---0------------------------------2-1-----------| 
    E |-----5--3-3---5-3----1-1--0-0---1-----0---------|
    
    Despues en el coro toca 
    'Por Amarte' 2:06
    G |------------------------------------------------|
    D |------------------------------------------------| (X4)
    A |------------------------------------------------| 
    E |---5-5--5-5--5-5--5-5--3-3--3-3--3-3--3-3-------| 
    
    Despues sigue igual con el verso:
    'Amarte es mi perdicion...' 2:24
    Tambien puedes tocarlo de
  • E |---5-5--3-3---5-3----1-1--0-0---1-0-------------| <---- 4 veces
    
    
      luego entra el teclado con esto que es lo principal en la canción 
       
       2  3  4  4   <--- octava
       A  A  C  E   <--- punteado 
       
       
       2  3  4  4   
       A  A  C  E   
     
       2  3  4  4   4  4  4  4  3
       A  A  C  E   E  F  E  C  A 
     
     
    
    
       2  3  4  4   
       A  A  C  E   
    
  • +
    ¡Colabora con nosotros!
    Envíanos tu versión de esta canción

Letra de Por Amarte
Amarte es mi estupidez, es mi suicidio
yo debo haber estado bastante loco
Amarte es el peor error inevitable
si al menos yo estuviera hecho de piedra
2)
Es tan dificil pensar con calma
y estoy quemando mi coraz=A2n
1)Ser tu due=A4o es un decir no eres de nadie
exclava de tus sue=F1os y tus complejos
2)me he perdido en las tormentas
transpirando amor sobre tu pecho
3)
Por amarte
1)
Amarte es mi perdicion mi vida entera
un cielo disfrazado de infierno
2)me he perdido en las tormentas
transpirando amor sobre tu pecho
3)Por amarte (6)
4)
Puse mi corazon en tus manos de ni=A4a
todo se estremecio cuando tu lo apartastes de tu lado
no es tan tonto
no es tan triste
amarte es dar cabezasos en la pared

No es tan tonto
no es tan triste
amarte es un cielo disfrazado de infierno
3)
Por Amarte....




[Por Amarte chords][Por Amarte cifra]
© LaCuerda.net · aviso legal · privacidad · es · en · pt · contacto