Tablatura para Bajo de los Prisioneros: Por Favor
Conexión · Inscripción
Letras y Acordes
Pantalla Completa
Imprimir
Versión Texto
Añadir Favorito
Otras Versiones

Mostrar Diagramas
Desfile Automático
Formato del Texto


Por Favor(BAJ)

los Prisioneros

calidad:
pris0312
AUTOR: Jorge Gonzalez
ALBUM: Pateando Piedras (1985)
Enviado por Guillermo
Holas.....este es el bajo que marca el teclado,
se puede tocar en cuerdas, se debe ecualizar bien 
el instrumento y hacerlo sonar tipo teclado...

INTRO:
1---------------------------
2---------------------------
3-------------3-3-3-4-4-4---
4---6--5--6-5---------------

A:
    oooooooootraaaaa     vez    parada en frente de mi
1--------------------------------------------
2--------3-7-------3-7-------2-5-------------
3--5-5-5-----5-5-5-----3-3-3-------------4-7-
4--------------------------------5-5-5-5-----

 iiiiiiii     Mosssstrando     tus ojos con pena
1--------------------------------------------
2--------3-7-------3-7-------2-5-------------
3--5-5-5-----5-5-5-----3-3-3-------------4-7-
4--------------------------------5-5-5-5-----   
        
   Todo es tan dificil asi
1----------------------------
2----------------------------
3----------------------------
4---3-3-3-3---------5-5-5-5--

 Porque hay frases que yo no quiero decir
1----------------------------------------------
2----------------------------------------------
3--------------------------------3-3-4-4-----5-
4--6---6----6-----6----------------------------    


A: IDEM
Tu conmigo, planeamos el robo mayor
Al amor el crimen no paga
Todo es tan dificil asi
Porque hay frases que tu no quieres oir.


CORO:
 No me sigas, no me llames
1-------------------------------------------
2-------------------------------------------
3--5---5---5---------------------------3-3--
4--------------5---5---5-----3---3---3------

Es mejor que no me ames
1-------------------------------------------
2-------------------------------------------
3--5---5---5---------------------------3-3--
4--------------5---5---5-----3---3---3------

No hagas imposible esta situación
1-------------------------------------------
2-------------------------------------------
3--5---5---5---------------------------3-3--
4--------------5---5---5-----3---3---3------

        Rindamonos            por favor.
1-------------------------------------------
2-------------------------------------------
3--5---5---5---------------------------3-3--
4--------------5---5---5-----3---3---3------

A:IDEM
Tu, tan fuerte en abrazarme y yo
Miserable, no puedo hacerte llorar.
Oyeme, preciosa, no hay mas
Eso era todo y no hay mucho que hablar.


Ojalá les tinque.....Chavela..

G.M.
Este fichero es trabajo propio de su transcriptor y representa su interpretación personal de la canción. El material contenido en esta página es
para exclusivo uso privado, por lo que se prohibe su reproducción o retransmisión, así como su uso para fines comerciales.

© LaCuerda.net · Aviso Legal · Privacidad