Acordes de Guitarra » P »los Prisioneros » De Rusia con amor (Tab)

De Rusia con amor
los Prisioneros

Letras, Acordes y Tabs para Guitarra, Bajo y Ukulele

  • e------------------------------------------------------------------
    B------------------------------------------------------------------
    G------------------------------------------------------------------
    D-----------3~--2-1~--2--------------------------------------------
    A------3-0-------------2-------------------------------------------
    E-0-5--------------------------------------------------------------
    
                                                                           A
    e------------------------------------------------------------------------------
    B-----------------------------2~-----------------------------------------------
    G-----------------------1~--2---2--------------------------------------10~-----
    D-----------5~--4-3~--2-----------4-0--3/5-5-3--------3-2--------------10~-----
    A------3-0-------------------------------------5----2---------3--------12~-----
    E-0-5------------------------------------------------------0-4-5---------------
    
    
    e------------------------------------------------------------------
    B------------------------------------------------------------------
    G------------------------------------------------------------------
    D-----------3~--2-1~--2--------------------------------------------
    
  • Bueno amigos, les envío la tablatura COMPLETA!!!! de este tema.
    La idea es que si van a publicar algo, esté completo, ya que la 
    versión publicada anteriormente no llega ni a la mitad, y así
    mejoraremos este sitio que a todos nos sirve.
    
    Bueno, este tema es en LA
    
    1/-----------------------/-----------------------------------------
    2/-----------------------/-----------------------------------------  
    3/-----------------------/----------------------------------------- -->>
    4/----------3---2-1--2---/-----------5--4-3--2-6---7------5-5-3---- -->>
    5/-------3-------------2-/-------3---------------7---7-4--------5--
    6/-0--5----5-------------/--0--5---5---------------------5---------
    
    1/---------------------/----------
    2/---------------------/----------  
    3/---------------------/--------LUEGO SUBE 1 TONO (SI)--->>
    4/----3-2--------------/----------
    5/--2-----2-------3----/----------
    6/----------0---4---5--/----------
    
    
    1/----------------------/------------------------
  • Bueno, esta canción es la última del álbum en vivo
    'Estadio Nacional'. Es muy fácil, y dice más o menos
    así...
    
    |---------------------------------|
    |---------------------------------|
    |---------------------------------|
    |-----------3-----2-1-----2-------|
    |-------3-------------------2-----|
    |-0-5-----5-----------------------|
    
    |---------------------------------|
    |---------------------------------|
    |---------------------------1-----|
    |-----------5-----4-3-----2-------|
    |-------3-------------------------|
    |-0-5-----5-----------------------|
    
    |---------------------------------|
    |---------------------------------|
    |---2-----------------------------|
    |-2-----2-------5---5---3---0-----|
    |---------3-0---------------------|
    |---------------------------------|
    
    |---------------------------------|
    |---------------------------------|
    |---------------------------------|
    |---3---2-------------------------|
    |-2---------------3---------------|
    |-----------0---4---5
  • +
    ¡Colabora con nosotros!
    Envíanos tu versión de esta canción






[De Rusia con amor chords][De Rusia con amor cifra]
© LaCuerda.net · aviso legal · privacidad · es · en · pt · contacto
DINAMICO