Acordes de Guitarra » P »La Polla Records » Tu mas energica repulsa (Tab)

Tu mas energica repulsa
La Polla Records

Letras, Acordes y Tabs para Guitarra, Bajo y Ukulele

  •      
    
     intro               estrofas
    g--------------|-------------------------
    d--------------|-------------------------
    a----6-5----6-5|----6-5----6-5----6-5----
    e-3-6----3-6---|-3-6----3-6----3-6---3-6-
    
    solo es cuestion de ke escuchen la rola y le den el
    tiempo adecuado. ay les va la letra.
    
    TU MAS ENERGICA REPULSA
    
    Cuando la muerte te golpea, cuando tu miedo se dispara,
    tú contra todas las violencias, te vengan de donde te vengan
    
    Tu más enérgica repulsa,
    tu más enérgica repulsa,
    tu más enérgica repulsa
    ¡firme voluntad!
    
    Cuando millones de pagados sufren tu terror de Estado,
    cuando el miedo que provocas mantiene quietas las botas
    
    Tu más enérgica repulsa,
    tu más enérgica repulsa,
    tu más enérgica repulsa
    ¡por los dioses no!
    
    Tu más enérgica repulsa,
    tu más enérgica repulsa,
    tu más enérgica repulsa
    ¡por los dioses no!
  • g--------------------------------------------------------------------------|
    d--------------------------------------------------------------------------|
    a-----3-2-------------3-2------3-2------3-2------3-2------3-2------3-2-----|
    e-0-3-------------0-3------0-3------0-3------0-3------0-3------0-3---------|
    
    Cuando la muerte te golpea, cuando tu miedo se dispara,
    tú contra todas las violencias, te vengan de donde te vengan
    
    g---------------------------------------------------------------------------|
    d---------------------------------------------------------------------------|
    a-----------7---------------------------------------------------------------|
    e-5-5-7-7-8---------5-5-7-7-8-7--------5-5-7-7-8----------5-7-8-7-5---------|
    
    Tu más enérgica repulsa,tu más enérgica repulsa,
    tu más enérgica repulsa,¡firme voluntad!
    
    g---------------------------------------------------------------------------|
    d---------------------------------------------------------------------------|
    a----
  • +
    ¡Colabora con nosotros!
    Envíanos tu versión de esta canción






[Tu mas energica repulsa chords][Tu mas energica repulsa cifra]
© LaCuerda.net · aviso legal · privacidad · es · en · pt · contacto