Acordes de Guitarra » P »Platero y Tú » Por fin (Tab)

Por fin
Platero y Tú

Letras, Acordes y Tabs para Guitarra, Bajo y Ukulele

  • RE
    Maldita la hora
       LA                     RE
    No sé  por qué tuve que hablar
    
             LA
    Quédate en mi casa
    
    LA                    RE
     Puedes dormir en el sofá
    
    SI
    De eso ya hace mucho tiempo
    
    SOL      LA               RE
    Aquí    no te puedes quedar
    
       SI
    Te veo  cada día
    
    
  • E |----------------------------|----------------------------|
    B |----------------------------|----------------------------|
    G |-----------------------7L---|--7L----------7--9b----9L---|
    D |-----------------7--9-------|----------------------------|
    A |----------------------------|----------------------------|
    E |----------------------------|----------------------------|
    
    
    ----------------------------|----------------------------|
    -----------------------10L--|--10-------------------8L---|
    --9-------------------------|--------9b----9b-9--7-------|
    ----------------------------|----------------------------|
    ----------------------------|----------------------------|
    ----------------------------|----------------------------|
    
    
    ----------------------------|----------------------------|
    --8-------------------------|----------------------------|
    -----------------------7L---|--7L----------7--9b----9L---|
    -----------------7--9-------|----------------------------|
    
  • +
    ¡Colabora con nosotros!
    Envíanos tu versión de esta canción
  • Tutorial
    HD
    POR FIN 🎸 PLATERO Y TU 🎸 TUTORIAL de RnR 🇪🇸🇬🇧
    30:17

Letra de Por fin
Maldita la hora
No sé por qué tuve que hablar
Quédate en mi casa
Puedes dormir en el sofá
De eso ya hace mucho tiempo
Aquí no te puedes quedar
Te veo cada día
Y cada día te odio un poco más
Por fin vas a marcharte
Por fin podré descansar
Esta vez voy a matarte;
Duérmete tranquilo
Ya nunca despertarás.
Es fácil y un poco simple, pero vamos, suena XD
Mi msn es gopzillajunior@hotmail.com
(/)achuca




[Por fin chords][Por fin cifra]
© LaCuerda.net · aviso legal · privacidad · es · en · pt · contacto