Acordes de Guitarra » P »Platero y Tú » El roce de tu cuerpo (Tab)

El roce de tu cuerpo
Platero y Tú

Letras, Acordes y Tabs para Guitarra, Bajo y Ukulele

  •     SOL          RE                   MI
         Te pilla la tarde en tu cuarto otra vez
        SOL            RE                   MI       ( DO  RE ) dejar sonar
         no suena el telefono y tu sabes por que.
    
    
        SOL         RE               MIm
         Cervezas vacias en tu habitacion
        SOL          RE             MIm
         el cenicero lleno en un rincon.    ( Do  Re )
    
        DO          RE                SOL x2
         Seguro que sola esta ella tambien
        DO            RE                   SOL x2
         tirada en la cama sin saber que hacer.
        DO          RE              SOL x2
         No se como comenzo la discusion
        MIm                 DO             RE    ( DO  RE)
         ni a quien le toca ahora pedir perdon.
    
    
  • ------------------------|------------------------------|
    ------------------------|------------------------------|
    ------------------------|--12------12----12--14br--12--|
    ------------------12-14-|------------------------------|
    ------------------------|------------------------------|
    ------------------------|------------------------------|
    
    ---------------------------------|-------------------------|
    ---------------------------------|-------------------------|
    --14------14-----12---14br----12-|-------------------------|
    ---------------------------------|-----14------14----------|
    ---------------------------------|-------------------------|
    ---------------------------------|-------------------------|
    
    --15-14-12----------------------------------|
    -----------15-13-12-15-13-12----------------|
    -----------------------------14-12----------|
    --------------------------------------12-14-|
    --------------------------------------------|
    --------------------------------------------|
    
  • E|-------------------------------|
    B|-----------2----2--------------|
    G|--0--2/4-----------4/2---0-----|
    D|----------------------------2--|
    A|-------------------------------|
    E|-------------------------------|
    
    Aqui empieza la canción (intro):
    
    E|------------------------|------------------------------|
    B|------------------------|--------------·---------------|
    G|------------------------|--12------12----12--14br--12--|
    D|------------------12-14-|------------------------------|
    A|------------------------|------------------------------|
    E|------------------------|------------------------------|
    
    E|---------------------------------|-------------------------|
    B|---------------------------------|-------------------------|
    G|--14------14-----12---14br----12-|-------------------------|
    D|---------------------------------|-----14------14----------|
    
  • E||-------------------|-------------------|-------------------|
    B||-------------------|-------------------|-------------------|
    G||-------------------|--5----------------|-------------------|
    D||-------------------|--5----------------|-------------------|
    A||-------------------|--3----------------|-------------------|
    E||-------------------|-------------------|-------------------|
    
    -----------------------|-------------------|-------------------|
    -----------------------|-------------------|-------------------|
    -------7---------------|-------------------|-------------------|
    -----------------------|-------------------|-------------------|
    --/5-------------------|-------------------|-------------------|
    -----------------------|-------------------|-------------------|
    
    ------------------------|------------------------------|
    ------------------------|------------------------------|
    ------------------------|--12------12----12--14br--12--|
    ------------------12-14-|----------------------------
  • La mayor parte de la canción se toca haciendo slap
    
    
       Intro
    G|---------------------------------7-----7---7-----7---9-----9---9---9-|
    D|-------------5-----5---5-----5---------------------------------------|
    A|--3----5-----------------------5---5-5---5---5-5---7---7-7---7---77--|
    E|----------3----3-3---3---3-3-----------------------------------------|
    
    
    G|------------------7-------7-----9------9-----9------9-------------------|
    D|-----5------5-----------------------------------------------------------|
    A|---------------5-----5-5-----7-----7-7----7-----7-7---------------------|
    E|--3----3-3--------------------------------------------------------------|
         Te pilla la tarde en tu cuarto otra vez
    
    G|-----------------7-----7-----9-------9----9-------9--------|
    D|----5------5-----------------------------------------------|
    A|--------------5----5-5----7-----7-7----7-----7-7------3---5|
    E|-3----3-3--------------------------------------------------|
       No suena el telefono y tu sabes por qu
  • +
    ¡Colabora con nosotros!
    Envíanos tu versión de esta canción
  • Tutorial
    HD
    COMO TOCAR EL ROCE DE TU CUERPO /PLATERO Y TU (CON TABS)
    11:47

Letra de El roce de tu cuerpo
Te pilla la tarde en tu cuarto otra vez
no suena el telefono y tu sabes por que.
Cervezas vacias en tu habitacion
el cenicero lleno en un rincon. ( Do Re )
Seguro que sola esta ella tambien
tirada en la cama sin saber que hacer.
No se como comenzo la discusion
ni a quien le toca ahora pedir perdon.
Y creo que muero si no siento el roce de tu cuerpo junto a mi
Recuerdo tus labios y esos ojos que al mirar casi hacen daño
Mientras la radio aburre con una cancion
miro aquella foto y me encuentro peor.
Y yo ya no se lo que a podido pasar
lo que estaba bien ahora esta fatal.
Seguro que sola esta ella tambien
tirada en la cama sin saber que hacer.
No se como comenzo la discusion
ni a quien le toca ahora pedir perdon.
Y creo que muero si no siento el roce de tu cuerpo junto a mi.
Recuerdo tus labios y esos ojos que al mirar casi hacen daño.
(esto se repite dos veces)




[El roce de tu cuerpo chords][El roce de tu cuerpo cifra]
© LaCuerda.net · aviso legal · privacidad · es · en · pt · contacto