Acordes de Guitarra » P »Plasma97 » Estrella Fugaz (Tab)

Estrella Fugaz
Plasma97

Letras, Acordes y Tabs para Guitarra, Bajo y Ukulele

  • |--------------------------------------
    |--------------------------------------
    |--------------------------------------
    |-1-1-1-1--1-1-1-1--1-1-1-1----2-1-2-1--
    |2-2-2-2-------------------------------
    |--------2-2-2-2---0-0-0-0------0-0-0--      x4
    
    
    B5    D#5      G#5    E5   F#5 (siguiendo al punteo) x2
    D#5 -C#5- B5 - C#5     C#5(Segundo punteo)x2
    
    |------------------------------------
    |------------------------------------
    |------------------------------------
    |--4-4-4-4----6-6-6-6----------------
    |-2-2-2-2----4-4-4-4-----6-----4----2
    |------------------------------------   ( D#5 - C#5 - B5 )
    
    YEAH D#5 -C#5 -B5-C#5
                              (REPETIR 2VECES)
    
  • SI5      FA#5-     MI5       FA# 5
    |--------------------------------------
    |--------------------------------------
    |--------------------------------------
    |-1-1-1-1- 1-1-1-1--1-1-1-1----2-1-2-1--
    |2-2-2-2-------------------------------
    |--------2-2--2--2--0-0-0-0------0--0--0--
    
    (REPETIR 3 VECES)
    
    SI5       FA#5-      MI5        FA# 5
    |-------------------------------------
    |------------------------------------
    |-------------------------------------
    |--1-1-1-1-1-1-1-1--------------------
    |-2-2-2-2------------2-2-2-2-----4-4-4-
    |--------2-2--2--2--0-0-0-0------2-2--2-2--
    
    Gooooooooooo¡¡¡¡
                               (PUNTEO DISTORSION)
    
  • E|-----------------|-----------------|--------------------------------|
    B|-----------------|-----------------|--------------------------------|
    G|-----------------|-----------------|--------------------------------|
    D|-----------------|-----------------|--------------------------------|
    A|---6---6---6---6-|---4---4---4---4-|---2---2---2---2---4---2---4---2|
    E|-7---7---7---7---|-2---2---2---2---|-0---0---0---0---0---0---0---0--|
    
    E|-----------------|-----------------|--------------------------------|
    B|-----------------|-----------------|--------------------------------|
    G|-----------------|-----------------|--------------------------------|
    D|-----------------|-----------------|--------------------------------|
    A|---6---6---6---6-|---4---4---4---4-|---2---2---2---2---2---2---2---2|
    E|-7---7---7---7---|-2---2---2---2---|-0---0---0---0---0---0---0---0--|
    
    despues viene con la guitarras : D5#, C5#, B5, C5#
    
    
    E|-----7----------7-----------|
    B|-4-5---5-4--4-5---5-4-5-4---|
    
    
  • +
    ¡Colabora con nosotros!
    Envíanos tu versión de esta canción

Letra de Estrella Fugaz
YEAH D#5 -C#5 -B5-C#5
(REPETIR 2VECES)
ME SIENTO MUY BIEN... MESIENTO MEJOR
VIVIENDO MIS SUEÑOS...LIMPIANDOME
DE DROGAS Y ALCOHOL.... EMOCIONES
HOY INVADEN MI CUERPO...ME SIENTO BIEN
KIERO ESTAR EN UN LUGAR
DONDE NADIE MAS PUEDA YA LLEGAR
Y KIERO SER ESTRELLA FUGAZ
VIAJAR POR EL TIEMPO EL ESPACIO INFINITO
VIAJAR POR EL TIEMPO EL ESPACIO INFINITO
YNOVOLVER Y NO VOLVER Y NO VOLVER
NUNKA MAS¡¡¡
ME SIENTO MUY BIEN... MESIENTO MEJOR
VIVIENDO MIS SUEÑOS...LIMPIANDOME
DE DROGAS Y ALCOHOL.... EMOCIONES
HOY INVADEN MI CUERPO...ME SIENTO BIEN
KIERO ESTAR EN UN LUGAR
DONDE NADIE MAS PUEDA YA LLEGAR
Y KIERO SER ESTRELLA FUGAZ
VIAJAR POR EL TIEMPO EL ESPACIO INFINITO
KIERO ESTAR EN UN LUGAR
DONDE NADIE MAS PUEDA YA LLEGAR
Y KIERO SER ESTRELLA FUGAZ
VIAJAR POR EL TIEMPO EL ESPACIO INFINITO
AKABA EN D#5

Video de Estrella Fugaz
[]




[Estrella Fugaz chords][Estrella Fugaz cifra]
© LaCuerda.net · aviso legal · privacidad · es · en · pt · contacto