Acordes de Guitarra » P »Plasma97 » Peter Punk (Tab)

Peter Punk
Plasma97

Letras, Acordes y Tabs para Guitarra, Bajo y Ukulele

  • SI5 - FA#5 - SOL#5 - MI5 se repite dos veces.
    
    
    Kiero volar x los aires ver el mundo desde alla
    SI5               FA#5                        SOL#5
    Kiero tokar mi guitarra i ser mui mui feliz
                       MI5
    Pero la vida te golpea i a veces duele de verdad
    SI5               FA#5                            SOL#5
    Io no soi un kobarde    voi a luchar x mi ideaaaaaaaaaal
                      MI5                          SI5       FA#5
    
    Voi a luchar x mi ideaaaaaaaaaal
                         SOL#5      MI5
    Voi a luchar x mi ideaaaAAAaAAal
                          SI5       FA#5
    Voi a luchar x mi ideaaaaaaaaaaaaal
                         SOL#5      MI5
    Guitarra limpia
    
    
  •   B5               F#5              G#5              E5
    |---------------------------------------------------------------------
    |---------------------------------------------------------------------
    |-4--3--4--6--4-3--8--6--4--6--8-6--4--3--4--6--4-3--9--8--6--8--9-6--
    |--44-44-44-44-4----44-44-44-44-4----44-44-44-44-4----99-99-99-99-9---
    |---------------------------------------------------------------------
    |---------------------------------------------------------------------
       .. .. .. .. .    .. .. .. .. .    .. .. .. .. .    .. .. .. .. .
    
    Versos y coros: B5 F#5 G#5 E5
    
    Ska:
    |-7--7--7--7--------------7--7--7--7--9--9--9--9---
    |-9--9--9--9--7--7--7--7--9--9--9--9--11-11-11-11--
    |-------------8--8--8--8---------------------------
    |--------------------------------------------------
    |--------------------------------------------------
    |--------------------------------------------------
    
    
    
  • +
    ¡Colabora con nosotros!
    Envíanos tu versión de esta canción

Letra de Peter Punk
Kiero volar x los aires ver el mundo desde alla
Kiero tokar mi guitarra i ser mui mui feliz
Pero la vida te golpea i a veces duele de verdad
Io no soi un kobarde voi a luchar x mi ideaaaaaaaaaal
Voi a luchar x mi ideaaaaaaaaaal
Voi a luchar x mi ideaaaAAAaAAal
Voi a luchar x mi ideaaaaaaaaaaaaal
Guitarra limpia
Las Notas son escalas desde el setimo traste.(sino asu manera)
No hay kintas.!
...siempre...simepre...siempre...me joden
...siempre...simepre...siempre...me joden
Desde chiko me sentia un rebelde odia todo lo ke es igual
Kiero vivir kiero soñar i no ser un prototipo mas
Guitarra distorsionada
Todas son kintas
Kiero volar x los aires ver el mundo desde alla
Kiero tokar mi guitarra i ser mui mui feliz
Pero la vida te golpea i a veces duele de verdad
Io no soi un kobarde voi a luchar x mi ideaaaaaaaaaal
Voi a luchar x mi ideaaaaaaaaaal
Voi a luchar x mi ideaaaAAAaAAal
Voi a luchar x mi ideaaaaaaaaaaaaal
Acompaña el, solo estas notas
Ritmo lento distorsion
Kiero volar x los aires ver el mundo desde alla
Kiero tokar mi guitarra i ser mui mui feliz
Pero la vida te golpea i a veces duele de verdad
Io no soi un kobarde
Kiero volar x los aires ver el mundo desde alla
Kiero tokar mi guitarra i ser mui mui feliz
Pero la vida te golpea i a veces duele de verdad
Io no soi un kobarde voi a luchar x mi ideaaaaaaaaaal
Voi a luchar x mi ideaaaaaaaaaal
Voi a luchar x mi ideaaaAAAaAAal
Voi a luchar x mi ideaaaaaaaaaaaaal
saludos ami banda en chimbote CaRtOn DE PieDRa…
R U b E n

Video de Peter Punk
[]




[Peter Punk chords][Peter Punk cifra]
© LaCuerda.net · aviso legal · privacidad · es · en · pt · contacto