Acordes de Guitarra » P »Los Perros » Bajo la rambla (Tab)

Bajo la rambla
Los Perros

Letras, Acordes y Tabs para Guitarra, Bajo y Ukulele

  • ACORDES: E    022100
             B7   021202
             A    002220
             C#m  446654
             B    224442
    
    INTRODUCCIÓN: Se usa el acorde E
    
    1|--0------------0---------0-----------0-----------
    2|--0-----0---0--0----0----0----0---0--0----0------
    3|--1--1---1-----1--1---1--1--1---1----1--1---1----
    4|--2------------2---------2-----------2-----------
    5|--2------------2---------2-----------2-----------
    6|--0------------0---------0-----------0-----------
    
    
              E
    Cuando el sol no está
                      B7 
    y la tarde cae al fin,
    
  • INTRO: F
    
               F
    Cuando el sol no está
                      C7 
    y la tarde cae al fin,
           
    quiero olvidar los momentos
                        F
    que en la rambla pasé.
    
    
             Bb            F 
    Tu me besabas y me decias:
                    
    siempre te amaré,
    C7                 F   Bb   F
    siempre seras mi amor.
    
    
    
  • Transcripción: Marcelo Villar (Río Cuarto, Córdoba)
    
    
    SOLO DE GUITARRA:
     
    1|------------------------------------------------------------
    2|------------------------------------------------------------
    3|-------------5----------------------------------------------
    4|----------5-----7--5--3-----------3---3-3-3-----------------
    5|-3--5--7-----------------3--5--7-------------7--5--5--7--7--
    6|------------------------------------------------------------
    
    
    
    1|------------------------------------------------------------
    2|------------------------------------------------------------
    3|------------------------------------------------------------
    4|--8--5--5--7--8--7--5--8--7--5--8--7--5--5--7--7------------
    5|------------------------------------------------------------
    6|------------------------------------------------------------
    
    
    
    Cualquier duda, consulta o sugerencia: marcelovillar@uole.com
  • Intro: G
    
               G                            D7
    Cuando el sol no esta y la tarde cae al fin
             D7
    quiero olvidar los momentos
                       G
    que en la rambla pasé.
    
    
             C           G 
    Tu me besabas y me decias
              G       D7                  G    C G
    siempre te amaré, siempre seras mi amor.
    
    
                  Em 
    Me encuentro solo...sin un amor
                  D 
    Me encuentro solo...en la rambla estoy 
    
  • +
    ¡Colabora con nosotros!
    Envíanos tu versión de esta canción

Letra de Bajo la rambla
INTRODUCCIÓN: Se usa el acorde E
Cuando el sol no está
y la tarde cae al fin,
quiero olvidar los momentos
que en la rambla pasé.
Tu me besabas y me decias:
Siempre te amaré,
siempre seras mi amor
Me encuentro solo, sin un amor
Me encuentro solo, en la rambla estoy
Me encuentro solo, todos tienen su amor
Me encuentro solo, ya no se que hacer
Me encuentro solo, solo
No podre encontrar jamas
dos que se amen,
pues mi corazón
mucho ha de sufrir
Tu me recordaras
que me querías,
me juraste que
de mí siempre serias
Me encuentro solo, sin un amor
Me encuentro solo, en la rambla estoy
Me encuentro solo, todos tienen su amor
Me encuentro solo, ya no se que hacer
Me encuentro solo, solo
Cualquier duda, consulta o sugerencia: marcelovillar@uole.com




[Bajo la rambla chords][Bajo la rambla cifra]
© LaCuerda.net · aviso legal · privacidad · es · en · pt · contacto