Tablatura para Guitarra de Los Perros: Bajo la rambla
Conexión · Inscripción
Letras y Acordes
Pantalla Completa
Imprimir
Versión Texto
Añadir Favorito
Otras Versiones

Mostrar Diagramas
Desfile Automático
Manipular Acordes
Formato del Texto


Bajo la rambla(TAB)

Los Perros

calidad:
perr0011
AUTOR: (artle-resnik-young)
ALBUM: desconocido
Enviado por marcelo
Transcripción: Marcelo Villar (Río Cuarto, Córdoba)


SOLO DE GUITARRA:
 
1|------------------------------------------------------------
2|------------------------------------------------------------
3|-------------5----------------------------------------------
4|----------5-----7--5--3-----------3---3-3-3-----------------
5|-3--5--7-----------------3--5--7-------------7--5--5--7--7--
6|------------------------------------------------------------



1|------------------------------------------------------------
2|------------------------------------------------------------
3|------------------------------------------------------------
4|--8--5--5--7--8--7--5--8--7--5--8--7--5--5--7--7------------
5|------------------------------------------------------------
6|------------------------------------------------------------



Cualquier duda, consulta o sugerencia: marcelovillar@uole.com
Este fichero es trabajo propio de su transcriptor y representa su interpretación personal de la canción. El material contenido en esta página es
para exclusivo uso privado, por lo que se prohibe su reproducción o retransmisión, así como su uso para fines comerciales.


© LaCuerda.net · Aviso Legal · Privacidad