Acordes de Guitarra » P »Pedro Suarez Vertiz » No Llores Más (Tab)

No Llores Más
Pedro Suarez Vertiz

Letras, Acordes y Tabs para Guitarra, Bajo y Ukulele

  • intro: G - Em - C - D 
            Em - G - D.
    
     
       G                   Em
     1)Cuando recuerdes mi piel
       C                       Am
       cuando recuerdes mis ojos 
        D                   Bm
       cuando te atrape el enojo
                       Am
       al ver que de apocos 
                       G
       no me tienes alla
       G                Em
       nunca vayas a pensar 
       C                 Am
       que yo deseo olvidarte
       D                     Bm
       pero aunque de mi te apartes
    
  •   intro: G - Em - C - D 
            Em - G - D.
    
     
       G                   Em
     1)Cuando recuerdes mi piel
       C                       D
       cuando recuerdes mis ojos 
       Am                   Em
       cuando te atrape el enojo
                       D
       al ver que de apocos 
                       G
       no me tienes alla
       G                Em
       nunca vayas a pensar 
       C                 D
       que yo deseo olvidarte
       Am                     Em
       pero aunque de mi te apartes
    
  • e -7-7-7-9-10-9-7-----7-----------------------5-------------------------
    B ----------------8-8---10-8-8--8-8-6-8-6-8-8---------------------------
    G ----------------------------------------------------------------------
    D ----------------------------------------------------------------------
    A ----------------------------------------------------------------------
    E ----------------------------------------------------------------------
    
    e ---------------------------------------9------------------------------
    B -9-11-12-11-9-11----10-10-8-10-8-10-11--------------------------------
    G ----------------------------------------------------------------------
    D ----------------------------------------------------------------------
    A ----------------------------------------------------------------------
    E ----------------------------------------------------------------------
    
    e ---10-12-10-----------------------------------------------------------
    B ------------13-13-11--12-10----10--12--8------------------------------
    G ----------------------------12----------------------------------------
    D ----------------------------------------------------------------------
    A ----------------------------------------------------------------------
    E ----------------------------------------------------------------------
    
  • +
    ¡Colabora con nosotros!
    Envíanos tu versión de esta canción

Letra de No Llores Más
1)Cuando recuerdes mi piel
cuando recuerdes mis ojos
cuando te atrape el enojo
al ver que de apocos
no me tienes alla
nunca vayas a pensar
que yo deseo olvidarte
pero aunque de mi te apartes
las cosas mi vida
no van a canbiar.
no llores mas ( no llores mas amor )
no llores mas
que asi me arrinconas
en la oscuridad.

1)si alguien me vio con amigas
en uno que otro lugar
sabras que nunca en mi vida
yo te fallaria frente a los demas
tu nunca lo entenderias
no te puedo explicar
pues hay cosas en la vida
que no se castigabn si sabes callar.(repetir coro)
Quiero sentir mi verdad
quiero tener el valor
pero nunca jugaria contigo
me inquietan las chicas
es todo, amor el alma esta
difinida ella tan solo va amar
pero mi cuerpo respira
buscando un contacto en mi soledad hmm.
1)el alma esta difinida
ella tan solo va a amar
hmm no llores mas amor
que asi me arrinconas
en la oscuridad.
cuando recuerdes mi piel
cuando recuerde mis ojos
que asi me arrinconas
en la oscuridad
tu nunca lo entenderias
no te lo puedo explicar
pues hay cosa en la vida
que asi me arrinconas
en la oscuridad....




[No Llores Más chords][No Llores Más cifra]
© LaCuerda.net · aviso legal · privacidad · es · en · pt · contacto