Acordes de Guitarra » P »Pedro Infante » Las Golondrinas (Tab)

Las Golondrinas
Pedro Infante

Letras, Acordes y Tabs para Guitarra, Bajo y Ukulele

  •          D                A7 
    A donde ira, veloz y fatigada
              D                  A7 
    la golondrina que de aqui se va
               D        D7            G   
    asi en el cielo te    mira angustiada
         A7       D       A7        D     
    sin paz ni abrigo que la vio partir
    
                 A7
    Junto a, mi pecho 
                D
    hallaras salida
              A7
    en donde pueda
                   D
    la estación pasar
                     D7 
    tambien yo estoy 
                     G
    
  • UNA HERMOSA PISTA, QUE SE PUEDE INTERPRETAR EN MOMENTOS TRISTES
    ESPERO Y LES GUSTE
    
    
    e-------0--1--------0--2--3--5-----7--7-----5-----------
    B----3-----3-----3--2--3--5--7--5--------------8--7--5--
    G-2--------2--2--------------------7--7--6-----------0--
    D----------0-----------0--------0-----------------------
    A-------------------------------------0-----------------
    E-------------------------------------------------------
    
    
    e-------0--1--------5--3--5--7--5--0--------3--2--0--
    B----3-----------3--7--5--7--8--7--------2-----------
    G-2-----------2-----------------------2--------------
    D----5--2--0-----------0-----------------------------
    A----------------------------------0--------------0--
    E----------------------------------------------------
    
    
    e-------0--2--------0-----10-10-9-10-------7--
    B----3-----------------7-------------------3--
    G-2-----------2--4--6--7----------0--------3--
    D----5--2--0-----------7----------------0--3--
    A----------------------9------9-------7----3--
    E---------
  •      6---------------------------------
         5---------------------------------
         4-7-------------------------------
         3---7-----------------------------
         2-----5-7---5-7-8------------8-7-5
         1------------------5-7-7---5------
    
         6---------------------------------
         5---------------------------------
         4-7-------------------------------
         3---7-----------------------------
         2-----5-7-----------5---5-8-7-5---
         1---------5-4-5-7-5---------------
    
         6--------------
         5--------------
         4-7------------
         3---7---------7
         2-----5-7---5--
         1--------------
    
  • +
    ¡Colabora con nosotros!
    Envíanos tu versión de esta canción

Letra de Las Golondrinas
A donde ira, veloz y fatigada
la golondrina que de aqui se va
asi en el cielo te mira angustiada
sin paz ni abrigo que la vio partir
Junto a, mi pecho
hallaras salida
en donde pueda
la estación pasar
tambien yo estoy
en la region perdida
oh cielo santo y, sin poder, volar
Junto a, mi pecho
hallaras salida
en donde pueda
la estación pasar
tambien yo estoy
en la region perdida
oh cielo santo y, sin poder, volar




[Las Golondrinas chords][Las Golondrinas cifra]
© LaCuerda.net · aviso legal · privacidad · es · en · pt · contacto