Acordes de Guitarra » P »Pedro Aznar » Mientes (Tab)

Mientes
Pedro Aznar

Letras, Notas, Punteos, Tablaturas y Acordes de Guitarra (Tabs & Chords)

  • Letra y Acordes
    Intro D - Am7 Repite
    
    D         Am7             D       Am7
    Mientes y yo puedo atestiguar
    D          Am7              D      Am7
    Mientes y ni te hace falta hablar
    D            Am7         D        Am7
    Mientes y adoras verme llorar
    D
    Callas ya no tenés dignidad
    
    C  G/B  Gm/Bb                   D    B7
    Si la culpa de todo me has de echar
    C  G/B  Gm/Bb                     E9
    Y hasta el fuego pretendes congelar
          Asus4
    No quiero estar
    
    
    Siempre buscando algo más allá
    
  • Letra y Acordes
    e---------------------------------------
    B---------------------------------------
    G---------------------------------------
    D------12-10-10-10-9--------------------
    A--------------------10-12-9-10-12------
    E--10------------------------------13-10
    
    D         C               D
    Mientes y yo puedo atestiguar
    D          C                 D  
    Mientes y ni te hace falta hablar
    D             C            D  
    Mientes y adoras verme llorar
    D              C          D   
    Callas ya no tenés dignidad
    
    C   G/B  Bb                     D    B7         
    Si la culpa de todo me has de echar
    C  G/B   Bb                     E9
    Y hasta el fuego pretendes congelar
    
  • Tablatura
    Intro D - Am7 Repite
    
    D         Am7             D       Am7
    Mientes y yo puedo atestiguar
    D          Am7              D      Am7
    Mientes y ni te hace falta hablar
    D            Am7         D        Am7
    Mientes y adoras verme llorar
    D
    Callas ya no tenés dignidad
    
    C  G/B  Gm/Bb                   D    Bm7
    Si la culpa de todo me has de echar
    C  G/B  Gm/Bb                     E9
    Y hasta el fuego pretendes congelar
          Asus4
    No quiero estar
    
    
    Siempre buscando algo más allá
    
  • Tab p/Bajo
    Bueno, aca les dejo la base del tema Mientes, del album tango 4
    Gracias Lucho!!
    Y si... puede ser que este como el orto, pero cualquier correccion
    me dicen
    
    
    D         Am7             D       Am7
    
    G--------------------------------------------------------
    D-0/12-10-10-9-------------------------------------------
    A--------------10-12-12-9-10-10-9------------------------
    E--------------------------------------------------------
    
    
    
    C  G/B  Gm/Bb                   D    B7
    
    G--------------------------------------------------------
    D--------------------------------------------------------
    A-3---1--5-----------------------------------------------
    E---3------2---------------------------------------------
    
    
      D   Am7   Bb       C9   D   Am7  Bb  G9    G/A     D
    
    
    G--------------------------------------------------------
    D-0------------------------------------------------------
    A--0-1-3-5-0-1----5--------------------------------------
    E--------------3-3---------------------------------------
  • +
    ¡Colabora con nosotros!
    Envíanos tu versión de esta canción
  • Tutorial
    HD
    Explicado - Como tocar "Mientes" de Pedro Aznar y Charly Garcia en el bajo tutorial#222
    18:11

Letra de Mientes
Mientes y yo puedo atestiguar
Mientes y ni te hace falta hablar
Mientes y adoras verme llorar
Callas ya no tenés dignidad
Si la culpa de todo me has de echar
Y hasta el fuego pretendes congelar
No quiero estar
Siempre buscando algo más allá
Siempre pensando que hay alguien más
Siempre sufriendo por lo que no hay
Jamás poniéndote en mi lugar
Cuando miro adentro tuyo
Me asusto de lo que hay
Cuando veo tus ojos y no estás
Si mis lágrimas de amor
Te alejan cada vez más
Es que de verdad no hay nada
Seré que esta vez es el final
Mientes no paras de hacerme mal
Callas ya no tenés dignidad
Si la culpa de todo me has de echar
Si olvidé mi sonrisa en un lugar
Que no haz de hallar
Cuando miro adentro tuyo
Me asusto de lo que hay
Cuando veo tus ojos y no estás
Si mis lágrimas de amor
Te alejan cada vez más
Es que de verdad no hay nada
Seré que esta vez es el final
Final



© LaCuerda.net · Aviso Legal · Privacidad
DINAMICO