Acordes de Guitarra » P »Pedro Alejandro » Sueños (Tab)

Sueños
Pedro Alejandro

Letras, Acordes y Tabs para Guitarra, Bajo y Ukulele

  • E            F
    Sueño con el cielo
    C                  E
    con el cielo y con el mar
    F            C
    imaginando travesias
    E                  Am
    para escapar de este lugar
    
    
    E            F
    Pero son solo sueños
    C            E
    difíciles de olvidar
    F            C
    faciles  de planear
    E            Am
    capaces de lograr
    
    E F C E F C E Am
    
  • e------------------------------
    B----0--1--3--5--3--1---0p1----
    G--1------------------------2--
    D--2---------------------------
    A--2---------------------------
    E------------------------------      
    
    e--1-----------------------------
    B--1-----0--1--3--5-3--1--0-------
    G--2---2---------------------2p4--
    D--3------------------------------
    A--3------------------------------
    E--1------------------------------      
    
    e----------------------------
    B--1----0--1--3--5--3--1---0-
    G--0--0----------------------
    D--2-------------------------
    A--3-------------------------
    E----------------------------
    
  • +
    ¡Colabora con nosotros!
    Envíanos tu versión de esta canción

Letra de Sueños
Sueño con el cielo
con el cielo y con el mar
imaginando travesias
para escapar de este lugar
Pero son solo sueños
difíciles de olvidar
faciles de planear
capaces de lograr
Uh. uh.
Yo soy solo un hombre
de una oportunidad
si tu quieres me dejas
y me veras tu marchar
y me veras tu marchar

Video de Sueños
[]




[Sueños chords][Sueños cifra]
© LaCuerda.net · aviso legal · privacidad · es · en · pt · contacto