Acordes de Guitarra » P »Las Pastillas del Abuelo » Viles Medios (Tab)

Viles Medios
Las Pastillas del Abuelo

Letras, Acordes y Tabs para Guitarra, Bajo y Ukulele

  • Am-Dm-G-F (x2)
    
    Am              Dm         G      F
    Diciendo más en los medios que en mis canciones
    Am            Dm       G         F
    Me voy dando cuenta de mi error, que no es poco.
    Am         Dm         G      F
    Reflexiono con cierto temor, de estar loco,
    Am            Dm           G   F
    En los medios que se olvidaron de ser nobles.
    
    C           G           Dm           F
    Boicoteando su apellido desinforman al pueblo
       C                   E
    Destruyendo nuestra conciencia social.
    
    Am-Dm-G-F (x2)
    
    Am          Dm          G    F
    Despertemos al cuarto poder, viles medios!
    
  • Am - G x3
    
    e[--5p7h--------------5-7-7----5p7h5-----------------------
    B[-------765------567----------------765-------5-6-5-------
    G[----------7-4-7------------------------7-4-7-------7-4-4-
    D[---------------------------------------------------------
    A[---------------------------------------------------------
    E[---------------------------------------------------------
    
    Am - Dm - G - F x2
    
    e[----- 7~~-----7------10-10-9-7------------
    B[-7-10-----7-10-7-10-----------------------
    G[------------------------------------------
    D[------------------------------------------
    A[------------------------------------------
    E[------------------------------------------
    
    Am              Dm         G      F
    Diciendo más en los medios que en mis canciones
    
  • +
    ¡Colabora con nosotros!
    Envíanos tu versión de esta canción

Letra de Viles Medios
Diciendo más en los medios que en mis canciones
Me voy dando cuenta de mi error, que no es poco.
Reflexiono con cierto temor, de estar loco,
En los medios que se olvidaron de ser nobles.
Boicoteando su apellido desinforman al pueblo
Destruyendo nuestra conciencia social.
Despertemos al cuarto poder, viles medios!
Persiguiendo un fin desgarrador, confundirnos!
Separarnos, dividirnos, desinformarnos!
Construyendo así nuestra razón, sin sentido propio!
Vayas donde vayas siempre habrá un clarísimo
Mensaje de monopolio informativo.
Papel pensado y prensa de los genocidas!
Peces gordos de la información, y el silencio!
Nace la cultura del control, y sus formas!
De aquel tiempo es que la información, ya no informa!
De nuestra vereda está la suerte, coronel,
Yo no publico sus muertes, usted me regala el papel.
Ya no atraiga tanta información, corrompida!
Tu cabeza es un diván y tu bocho un ghetto!
El estado y la administración, qué movida!
Nótese que he dicho estado y no gobierno de turno,
Es el pueblo quien debe multiplicar la opinión.
Otro muro de Berlín
En papeles coloridos
De allí no podrás huir
Después de haberlos leído.




[Viles Medios chords][Viles Medios cifra]
© LaCuerda.net · aviso legal · privacidad · es · en · pt · contacto
DINAMICO