Acordes de Guitarra » P »Las Pastillas del Abuelo » Fuerza, locura y libertad (Tab)

Fuerza, locura y libertad
Las Pastillas del Abuelo

  • Letra y Acordes
    (Cm
    Fm Gm G#)
    
    
    Cm
    De chiquito aprendí a comunicarme así,
    Fm   Gm   G#
              guitarra en mano.
    Cm
    Tal vez funcione si estas en el más allá,
    Fm   Gm   G#
              como pensamiento.
    Cm
    Porque hoy sos pensamiento y emoción en
    Fm   Gm   G#
    mi        y no es en vano.
    Cm
    Tengo un mensaje Silvia, solo perci-
    Fm   Gm   G#
    bi...me,  te quieren saludar.
    
  • Tablatura
     1      Cm        2     Cm      3   Fm        Gm     4 G#
    e|----------3-x---|---------3-3-|--------1---------3-|-------8-11/--|
    B|--3h4x3h4---x---|-3h4x3h4---4-|--------1---------3-|-9-11--9--9/--|
    G|--3h5x3h5---x-3-|-3h5x3h5---5-|------1---------3---|-8--8---------|
    D|----------------|-------------|--------------------|--------------|
    A|----------------|-------------|--------------------|--------------|
    E|----------------|-------------|-0-1-------2-3------|--------------|
     5    Cm      6    Cm       7   Fm        Gm     8 G#
    e|----------3-|---------3-3-|--------1---------3-|---------8/10~~~-|
    B|--3h4x3h4---|-3h4x3h4---4-|--------1---------3-|-9-11-9--9/11~~~-|
    G|--3h5x3h5---|-3h5x3h5---5-|------1---------3---|-8-8--8--8/10~~~-|
    D|------------|-------------|--------------------|-----------------|
    A|------------|-------------|--------------------|-----------------|
    E|------------|-------------|-0-1-------2-3------|-----------------|
     9
    e|-10h11p10--------------| x matar las cuerdas con la mano derecha
    B|-11-------11-----------| h ligado ascendente
    G|-------------10/8--7/3-| p ligado descendente
    D|-----------------------| / slide
    A|-----------------------| ~ vibrato
    
  • Tablatura
                Cm             Cm   Fm        Gm      G#        A#sus4
    E|------------------------------1------2-3-------4----------------|
    A|-3---3-----3----3---3-----3-------------------------------------|
    D|-----------5--------------5-------------------------------------|
    G|-3]5-3]5---5----3]5-3]5---5-----1--------3-----5--5--5---10--10-|
    B|-3]4-3]4---4----3]4-3]4---4-------1--------3---4--4--4---11--11-|
    e|---------3-3-3----------3-3-3-----1--------3---4--6--4---11--11-|
    
    E|---------------------------|
    A|-----------------------13--|
    D|-----------------13-12-----|
    G|--------------10-----------|
    B|-----------11--------------|
    e|--10]11[10-----------------|
    
    
    
    
    
    Cm
    
  • Tablatura
    Tener en cuenta golpear las cuerdas con la mano derecha.
    
    ---------3-----------3---------1-------3----------8--11-|
    -----------------------4-------1-------3---9h11---9--9--|
    -3h5-3h5-----3h5-3h5-----------------------8------------|
    -3h5-3h5-----3h5-3h5------------------------------------|
    --------------------------------------------------------|
    --------------------------1-2----2-3-4------------------|
    
    ---------3-----------3--------1--------3------------9s10|
    -----------------------4------1--------3--9--11--9--9h11|
    -3h5-3h5-----3h5-3h5----------------------8--8---8------|
    -3h5-3h5-----3h5-3h5------------------------------------|
    --------------------------------------------------------|
    --------------------------1-2----2-3-4------------------|
    
    10h11p10------------------------------------------------|
    11-------11---------------------------------------------|
    -----------10p8-7---------------------------------------|
    --------------------------------------------------------|
    ------------
  • +
    ¡Colabora con nosotros!
    Envíanos tu versión de esta canción

Letra de Fuerza, locura y libertad
De chiquito aprendí a comunicarme así,
guitarra en mano.
Tal vez funcione si estas en el más allá,
como pensamiento.
Porque hoy sos pensamiento y emoción en
mi y no es en vano.
Tengo un mensaje Silvia, solo perci-
bi...me, te quieren saludar.
Nadie te olvida Reina de Congreso,
estás siempre presente.
Tierna mirada y un terrible caminar,
recuerda tu gente.
Más de un alma que busca paz en Marcos Paz,
todavía te siente.
Nos gustaría que supieras además
que tu recuerdo nos llena de fuerza, locura y libertad!
Sistema trunco sociedad incivilizada = trágica muerte
De Ezeiza siendo hermosa y queriendo cambiar
no atrae la suerte.
Boicotearon tu luz en nombre de la ley,
la del más fuerte.
Tenemos infinitos viajes para poder volver a verte,
en sueños de fuerza, locura y libertad!
Angelito de todos nosotros,
Barbie rubia hoy te toca cuidarnos,
A nosotros de nosotros mismos,
de tanta oscuridad en la que estamos.
Le sonreiremos a tu risa y lloraremos tu llanto!
Orines propios, mina bien picada y zas!,
meta escracharte
su nombre con el orgullo del artista
hacia su obra de arte.
Confiando con amor de madre
que ella va a saberse artista y arte
Va a comprenderse, va quererse y va a elegirse
tres estandartes
Vivir con fuerza, locura y libertad, libertad!
Angelito de todos nosotros,
Barbie rubia hoy te toca cuidarnos,
A nosotros de nosotros mismos,
de tanta oscuridad en la que estamos.
Le sonreiremos a tu risa y lloraremos tu llanto!



© LaCuerda.net · aviso legal · privacidad · contacto