Acordes de Guitarra » P »Las Pastillas del Abuelo » El hombre mosca (Tab)

El hombre mosca
Las Pastillas del Abuelo

Letras, Acordes y Tabs para Guitarra, Bajo y Ukulele

  •            G                        C
    |----------------------------|---------------------------|
    |---3-3---3-3---3-3---3---3--|---1-1---1-1---1-1--1---1--|
    |---0-0---0-0---0-0---0---0--|---0-0---0-0---0-0--0---0--|
    |-----------------------0----|---------------------------|
    |-------2-----------2--------|-3-----------3--------3----|
    |-3-----------3--------------|-------3----------3--------|
    
              D               G
    |------------------------------------------|
    |---2-2---2-2---2-2--2---2---3-3---3-3--3--|
    |---3-3---3-3---3-3--3---3---0-0---0-0--0--|
    |-0-----------0--------0-------------------|
    |-------------------3------------2---------|
    |-------3------------------3------------3--|
    
    (como intro)
            G
    Cuando Gandhi sale de Coto
              C
    
  • +
    ¡Colabora con nosotros!
    Envíanos tu versión de esta canción

Letra de El hombre mosca
(como intro)
Cuando Gandhi sale de Coto
los compañeros voltean a mirarlo
todos se tienen que ir
y nadie quiere acompañarlo
Camisa blanca muy lungo tez morena
los ojos rojos siempre en su mirada
va por la plaza y manguea una tuca garroneada
Es una percha, una goma, un garrón
es como un chicle no es broma, es un bajón!
guarda que engaña, no es el hombre araña...
es el hombre mosca...
(rasgueo)
Y se comenta que pega medio kilo
no tiene problemas todo es para él
cuando se corta la torta,
cuando se divide el papel
siempre esta el...el hombre mosca
Su flora intestinal es toda verde
y tiene un radar en la nariz
menos yerba todo pierde y la caja nunca le da
sin vergüenza va...el hombre mosca!
(como intro)
Te toca, te pisa el talón, te cachetea
si te queda el último bocado el te lo papea
no para siempre te mosquea
porque es el hombre mosca
(rasgueo)
Y se comenta que pega medio kilo
no tiene problemas todo es para él
cuando se corta la torta,
cuando se divide el papel
siempre esta el...el hombre mosca!
Su flora intestinal es toda verde
y tiene un radar en la nariz
menos yerba todo pierde y la caja nunca le da
sin vergüenza va...el hombre mosca!
Y no discrimina amigos ni mujeres
familiares compañeros de ocasión
siempre disponible para despertar la irritación
que mosca sos...hombre mosca!
(rasgueo lento)
Se te va a acabar ese latido
hombre mosca alguien se va a cansar
pero siempre un zumbido de fondo vamos a escuchar
(rasgueo normal)
porque hay alguien que responde tras tu ausencia
porque hay alguien que ya empezó a molestar
te conoce como Mario y nunca te dice papá
sin vergüenza va el mini-mosca...
Cuando crezca le vas a enseñar tus trucos
y en la escuela lo van a querer matar
luego en la adolescencia no va a parar de mosquear
y pronto sera un hombre mosca contra la humanidad
contra la humanidad
contra la humanidad...
AGUANTEN LAS PASTILLAS!




[El hombre mosca chords][El hombre mosca cifra]
© LaCuerda.net · aviso legal · privacidad · es · en · pt · contacto
DINAMICO